  0
SECTION
  2
HEADER
  9
$ACADVER
  1
AC1009
999
I-DEAS 11 NX Not Encoded
  9
$EXTMIN
 10
0.0
 20
0.0
  9
$EXTMAX
 10
4.4E+001
 20
3.4E+001
  9
$TEXTSIZE
 40
1.25E-001
  9
$LTSCALE
 40
1.0
  9
$CLAYER
  8
1
  9
$CECOLOR
 62
3
  9
$DIMASZ
 40
1.25E-001
  9
$DIMEXO
 40
6.25E-002
  9
$DIMDLI
 40
2.5E-001
  9
$DIMEXE
 40
1.25E-001
  9
$DIMTP
 40
5.0E-003
  9
$DIMTM
 40
-5.0E-003
  9
$DIMTXT
 40
1.25E-001
  9
$DIMLIM
 70
0
  9
$DIMTIH
 70
1
  9
$DIMTOH
 70
1
  9
$DIMSE1
 70
0
  9
$DIMSE2
 70
0
  9
$DIMTAD
 70
0
  9
$DIMASO
 70
1
  9
$DIMALT
 70
0
  9
$DIMALTD
 70
0
  9
$DIMTOFL
 70
1
  9
$DIMTIX
 70
0
  9
$DIMSAH
 70
0
  9
$DIMTFAC
 40
1.0
  9
$DIMGAP
 40
6.25E-002
  9
$LUNITS
 70
2
  9
$LUPREC
 70
3
  9
$FILLETRAD
 40
2.5E-001
  9
$AUNITS
 70
0
  9
$AUPREC
 70
1
  9
$CHAMFERA
 40
2.5E-001
  9
$CHAMFERB
 40
2.5E-001
  9
$ANGBASE
 50
0.0
  9
$ANGDIR
 70
0
  9
$PEXTMIN
 10
0.0
 20
0.0
 30
0.0
  9
$PEXTMAX
 10
4.4E+001
 20
3.4E+001
 30
0.0
  9
$PLIMMIN
 10
0.0
 20
0.0
  9
$PLIMMAX
 10
4.4E+001
 20
3.4E+001
  9
$PDMODE
 70
2
  9
$PDSIZE
 40
-1.0E-002
  9
$SPLINETYPE
 70
6
  9
$TILEMODE
 70
1
  0
ENDSEC
  0
SECTION
  2
TABLES
  0
TABLE
  2
VPORT
 70
2
  0
VPORT
  2
*Active
 70
0
 10
0.0
 20
0.0
 11
4.4E+001
 21
3.4E+001
 12
2.2E+001
 22
1.7E+001
 13
0.0
 23
0.0
 14
1.0
 24
1.0
 15
0.0
 25
0.0
 16
0.0
 26
0.0
 36
1.0
 17
0.0
 27
0.0
 37
0.0
 40
3.4E+001
 41
1.2941176
 42
5.0E+001
 43
0.0
 44
0.0
 50
0.0
 51
0.0
 71
0
 72
100
 73
1
 74
3
 75
0
 76
0
 77
0
 78
0
  0
ENDTAB
  0
TABLE
  2
LTYPE
 70
7
  0
LTYPE
  2
HIDDENNEW0
  3
_ 
 70
64
 72
65
 73
3
 40
1.875E-001
 49
6.25E-002
 49
-6.25E-002
 49
6.25E-002
  0
LTYPE
  2
HIDDENNEW1
  3
_ 
 70
64
 72
65
 73
3
 40
1.875E-001
 49
6.25E-002
 49
-6.25E-002
 49
6.25E-002
  0
LTYPE
  2
HIDDEN
  3
_ 
 70
64
 72
65
 73
3
 40
1.875E-001
 49
6.25E-002
 49
-6.25E-002
 49
6.25E-002
  0
LTYPE
  2
CENTERLINE
  3
_ 
 70
64
 72
65
 73
5
 40
1.25
 49
5.0E-001
 49
-6.25E-002
 49
1.25E-001
 49
-6.25E-002
 49
5.0E-001
  0
LTYPE
  2
PHANTOM
  3
_ 
 70
64
 72
65
 73
7
 40
1.1875
 49
3.75E-001
 49
-6.25E-002
 49
1.25E-001
 49
-6.25E-002
 49
1.25E-001
 49
-6.25E-002
 49
3.75E-001
  0
LTYPE
  2
SHORT_DASH
  3
_ 
 70
64
 72
65
 73
3
 40
1.25E-001
 49
3.125E-002
 49
-6.25E-002
 49
3.125E-002
  0
LTYPE
  2
LONG_DASH
  3
_ 
 70
64
 72
65
 73
3
 40
3.75E-001
 49
9.375E-002
 49
-1.875E-001
 49
9.375E-002
  0
ENDTAB
  0
TABLE
  2
LAYER
 70
258
  0
LAYER
  2
1
 70
0
 62
7
  6
CONTINUOUS
  0
LAYER
  2
2
 70
0
 62
7
  6
CONTINUOUS
  0
LAYER
  2
3
 70
0
 62
7
  6
CONTINUOUS
  0
LAYER
  2
4
 70
0
 62
7
  6
CONTINUOUS
  0
LAYER
  2
5
 70
0
 62
7
  6
CONTINUOUS
  0
LAYER
  2
6
 70
0
 62
7
  6
CONTINUOUS
  0
LAYER
  2
7
 70
0
 62
7
  6
CONTINUOUS
  0
LAYER
  2
8
 70
0
 62
7
  6
CONTINUOUS
  0
LAYER
  2
9
 70
0
 62
7
  6
CONTINUOUS
  0
LAYER
  2
10
 70
0
 62
7
  6
CONTINUOUS
  0
LAYER
  2
11
 70
0
 62
7
  6
CONTINUOUS
  0
LAYER
  2
12
 70
0
 62
7
  6
CONTINUOUS
  0
LAYER
  2
13
 70
0
 62
7
  6
CONTINUOUS
  0
LAYER
  2
14
 70
0
 62
7
  6
CONTINUOUS
  0
LAYER
  2
15
 70
0
 62
7
  6
CONTINUOUS
  0
LAYER
  2
16
 70
0
 62
7
  6
CONTINUOUS
  0
LAYER
  2
17
 70
0
 62
7
  6
CONTINUOUS
  0
LAYER
  2
18
 70
0
 62
7
  6
CONTINUOUS
  0
LAYER
  2
19
 70
0
 62
7
  6
CONTINUOUS
  0
LAYER
  2
20
 70
0
 62
7
  6
CONTINUOUS
  0
LAYER
  2
21
 70
0
 62
7
  6
CONTINUOUS
  0
LAYER
  2
22
 70
0
 62
7
  6
CONTINUOUS
  0
LAYER
  2
23
 70
0
 62
7
  6
CONTINUOUS
  0
LAYER
  2
24
 70
0
 62
7
  6
CONTINUOUS
  0
LAYER
  2
25
 70
0
 62
7
  6
CONTINUOUS
  0
LAYER
  2
26
 70
0
 62
7
  6
CONTINUOUS
  0
LAYER
  2
27
 70
0
 62
7
  6
CONTINUOUS
  0
LAYER
  2
28
 70
0
 62
7
  6
CONTINUOUS
  0
LAYER
  2
29
 70
0
 62
7
  6
CONTINUOUS
  0
LAYER
  2
30
 70
0
 62
7
  6
CONTINUOUS
  0
LAYER
  2
31
 70
0
 62
7
  6
CONTINUOUS
  0
LAYER
  2
32
 70
0
 62
7
  6
CONTINUOUS
  0
LAYER
  2
33
 70
0
 62
7
  6
CONTINUOUS
  0
LAYER
  2
34
 70
0
 62
7
  6
CONTINUOUS
  0
LAYER
  2
35
 70
0
 62
7
  6
CONTINUOUS
  0
LAYER
  2
36
 70
0
 62
7
  6
CONTINUOUS
  0
LAYER
  2
37
 70
0
 62
7
  6
CONTINUOUS
  0
LAYER
  2
38
 70
0
 62
7
  6
CONTINUOUS
  0
LAYER
  2
39
 70
0
 62
7
  6
CONTINUOUS
  0
LAYER
  2
40
 70
0
 62
7
  6
CONTINUOUS
  0
LAYER
  2
41
 70
0
 62
7
  6
CONTINUOUS
  0
LAYER
  2
42
 70
0
 62
7
  6
CONTINUOUS
  0
LAYER
  2
43
 70
0
 62
7
  6
CONTINUOUS
  0
LAYER
  2
44
 70
0
 62
7
  6
CONTINUOUS
  0
LAYER
  2
45
 70
0
 62
7
  6
CONTINUOUS
  0
LAYER
  2
46
 70
0
 62
7
  6
CONTINUOUS
  0
LAYER
  2
47
 70
0
 62
7
  6
CONTINUOUS
  0
LAYER
  2
48
 70
0
 62
7
  6
CONTINUOUS
  0
LAYER
  2
49
 70
0
 62
7
  6
CONTINUOUS
  0
LAYER
  2
50
 70
0
 62
7
  6
CONTINUOUS
  0
LAYER
  2
51
 70
0
 62
7
  6
CONTINUOUS
  0
LAYER
  2
52
 70
0
 62
7
  6
CONTINUOUS
  0
LAYER
  2
53
 70
0
 62
7
  6
CONTINUOUS
  0
LAYER
  2
54
 70
0
 62
7
  6
CONTINUOUS
  0
LAYER
  2
55
 70
0
 62
7
  6
CONTINUOUS
  0
LAYER
  2
56
 70
0
 62
7
  6
CONTINUOUS
  0
LAYER
  2
57
 70
0
 62
7
  6
CONTINUOUS
  0
LAYER
  2
58
 70
0
 62
7
  6
CONTINUOUS
  0
LAYER
  2
59
 70
0
 62
7
  6
CONTINUOUS
  0
LAYER
  2
60
 70
0
 62
7
  6
CONTINUOUS
  0
LAYER
  2
61
 70
0
 62
7
  6
CONTINUOUS
  0
LAYER
  2
62
 70
0
 62
7
  6
CONTINUOUS
  0
LAYER
  2
63
 70
0
 62
7
  6
CONTINUOUS
  0
LAYER
  2
64
 70
0
 62
7
  6
CONTINUOUS
  0
LAYER
  2
65
 70
0
 62
7
  6
CONTINUOUS
  0
LAYER
  2
66
 70
0
 62
7
  6
CONTINUOUS
  0
LAYER
  2
67
 70
0
 62
7
  6
CONTINUOUS
  0
LAYER
  2
68
 70
0
 62
7
  6
CONTINUOUS
  0
LAYER
  2
69
 70
0
 62
7
  6
CONTINUOUS
  0
LAYER
  2
70
 70
0
 62
7
  6
CONTINUOUS
  0
LAYER
  2
71
 70
0
 62
7
  6
CONTINUOUS
  0
LAYER
  2
72
 70
0
 62
7
  6
CONTINUOUS
  0
LAYER
  2
73
 70
0
 62
7
  6
CONTINUOUS
  0
LAYER
  2
74
 70
0
 62
7
  6
CONTINUOUS
  0
LAYER
  2
75
 70
0
 62
7
  6
CONTINUOUS
  0
LAYER
  2
76
 70
0
 62
7
  6
CONTINUOUS
  0
LAYER
  2
77
 70
0
 62
7
  6
CONTINUOUS
  0
LAYER
  2
78
 70
0
 62
7
  6
CONTINUOUS
  0
LAYER
  2
79
 70
0
 62
7
  6
CONTINUOUS
  0
LAYER
  2
80
 70
0
 62
7
  6
CONTINUOUS
  0
LAYER
  2
81
 70
0
 62
7
  6
CONTINUOUS
  0
LAYER
  2
82
 70
0
 62
7
  6
CONTINUOUS
  0
LAYER
  2
83
 70
0
 62
7
  6
CONTINUOUS
  0
LAYER
  2
84
 70
0
 62
7
  6
CONTINUOUS
  0
LAYER
  2
85
 70
0
 62
7
  6
CONTINUOUS
  0
LAYER
  2
86
 70
0
 62
7
  6
CONTINUOUS
  0
LAYER
  2
87
 70
0
 62
7
  6
CONTINUOUS
  0
LAYER
  2
88
 70
0
 62
7
  6
CONTINUOUS
  0
LAYER
  2
89
 70
0
 62
7
  6
CONTINUOUS
  0
LAYER
  2
90
 70
0
 62
7
  6
CONTINUOUS
  0
LAYER
  2
91
 70
0
 62
7
  6
CONTINUOUS
  0
LAYER
  2
92
 70
0
 62
7
  6
CONTINUOUS
  0
LAYER
  2
93
 70
0
 62
7
  6
CONTINUOUS
  0
LAYER
  2
94
 70
0
 62
7
  6
CONTINUOUS
  0
LAYER
  2
95
 70
0
 62
7
  6
CONTINUOUS
  0
LAYER
  2
96
 70
0
 62
7
  6
CONTINUOUS
  0
LAYER
  2
97
 70
0
 62
7
  6
CONTINUOUS
  0
LAYER
  2
98
 70
0
 62
7
  6
CONTINUOUS
  0
LAYER
  2
99
 70
0
 62
7
  6
CONTINUOUS
  0
LAYER
  2
100
 70
0
 62
7
  6
CONTINUOUS
  0
LAYER
  2
101
 70
0
 62
7
  6
CONTINUOUS
  0
LAYER
  2
102
 70
0
 62
7
  6
CONTINUOUS
  0
LAYER
  2
103
 70
0
 62
7
  6
CONTINUOUS
  0
LAYER
  2
104
 70
0
 62
7
  6
CONTINUOUS
  0
LAYER
  2
105
 70
0
 62
7
  6
CONTINUOUS
  0
LAYER
  2
106
 70
0
 62
7
  6
CONTINUOUS
  0
LAYER
  2
Drafting_Hidden_Entities
 70
1
 62
7
  6
CONTINUOUS
  0
ENDTAB
  0
TABLE
  2
STYLE
 70
1
  0
STYLE
  2
STANDARD
 70
64
 40
0.0
 41
1.0
 50
0.0
 71
0
 42
1.0
  3
monotxt.shx
  4

  0
ENDTAB
  0
TABLE
  2
VIEW
 70
0
  0
ENDTAB
  0
TABLE
  2
DIMSTYLE
 70
0
  0
ENDTAB
  0
ENDSEC
  0
SECTION
  2
BLOCKS
  0
BLOCK
  2
_AH12
  3
_AH
 10
0.0
 20
0.0
 70
64
  0
LINE
  8
0
  6
CONTINUOUS
 62
0
 10
0.0
 20
0.0
 11
1.0
 21
0.0
  0
LINE
  8
0
  6
CONTINUOUS
 62
0
 10
0.0
 20
0.0
 11
-1.0
 21
0.0
  0
ENDBLK
  0
BLOCK
  2
_AH13
  3
_AH
 10
0.0
 20
0.0
 70
64
  0
SOLID
  8
0
  6
CONTINUOUS
 62
0
 10
0.0
 20
0.0
 11
-1.0
 21
1.66667E-001
 12
-1.0
 22
-1.66667E-001
 13
0.0
 23
0.0
  0
ENDBLK
  0
BLOCK
  2
_AH14
  3
_AH
 10
0.0
 20
0.0
 70
64
  0
ENDBLK
  0
BLOCK
  2
_AH15
  3
_AH
 10
0.0
 20
0.0
 70
64
  0
CIRCLE
  8
0
  6
CONTINUOUS
 62
0
 10
0.0
 20
0.0
 40
1.66667E-001
  0
LINE
  8
0
  6
CONTINUOUS
 62
0
 10
0.0
 20
0.0
 11
-1.0
 21
0.0
  0
ENDBLK
  0
BLOCK
  2
_AH16
  3
_AH
 10
0.0
 20
0.0
 70
64
  0
POLYLINE
  8
0
  6
CONTINUOUS
 62
0
 66
1
 40
1.66667E-001
 41
1.66667E-001
 70
0
  0
VERTEX
  8
0
 42
1.0
 10
8.3335E-002
 20
0.0
 70
0
  0
VERTEX
  8
0
 42
1.0
 10
-8.3335E-002
 20
0.0
 70
0
  0
VERTEX
  8
0
 42
0.0
 10
8.3335E-002
 20
0.0
 70
0
  0
SEQEND
  0
LINE
  8
0
  6
CONTINUOUS
 62
0
 10
0.0
 20
0.0
 11
-1.0
 21
0.0
  0
ENDBLK
  0
BLOCK
  2
_AH17
  3
_AH
 10
0.0
 20
0.0
 70
64
  0
LINE
  8
0
  6
CONTINUOUS
 62
0
 10
-1.66667E-001
 20
-1.66667E-001
 11
1.66667E-001
 21
-1.66667E-001
  0
LINE
  8
0
  6
CONTINUOUS
 62
0
 10
1.66667E-001
 20
-1.66667E-001
 11
1.66667E-001
 21
1.66667E-001
  0
LINE
  8
0
  6
CONTINUOUS
 62
0
 10
1.66667E-001
 20
1.66667E-001
 11
-1.66667E-001
 21
1.66667E-001
  0
LINE
  8
0
  6
CONTINUOUS
 62
0
 10
-1.66667E-001
 20
1.66667E-001
 11
-1.66667E-001
 21
-1.66667E-001
  0
LINE
  8
0
  6
CONTINUOUS
 62
0
 10
0.0
 20
0.0
 11
-1.0
 21
0.0
  0
ENDBLK
  0
BLOCK
  2
_AH18
  3
_AH
 10
0.0
 20
0.0
 70
64
  0
SOLID
  8
0
  6
CONTINUOUS
 62
0
 10
-1.66667E-001
 20
-1.66667E-001
 11
1.66667E-001
 21
-1.66667E-001
 12
-1.66667E-001
 22
1.66667E-001
 13
1.66667E-001
 23
1.66667E-001
  0
LINE
  8
0
  6
CONTINUOUS
 62
0
 10
0.0
 20
0.0
 11
-1.0
 21
0.0
  0
ENDBLK
  0
BLOCK
  2
_AH19
  3
_AH
 10
0.0
 20
0.0
 70
64
  0
LINE
  8
0
  6
CONTINUOUS
 62
0
 10
-5.0E-001
 20
-5.0E-001
 11
5.0E-001
 21
5.0E-001
  0
LINE
  8
0
  6
CONTINUOUS
 62
0
 10
0.0
 20
0.0
 11
-1.0
 21
0.0
  0
ENDBLK
  0
BLOCK
  2
_AH20
  3
_AH
 10
0.0
 20
0.0
 70
64
  0
POLYLINE
  8
0
  6
CONTINUOUS
 62
0
 66
1
 40
2.0E-002
 41
2.0E-002
 70
0
  0
VERTEX
  8
0
 42
4.1421356E-001
 10
-1.66667E-001
 20
-1.66667E-001
 70
0
  0
VERTEX
  8
0
 42
0.0
 10
0.0
 20
0.0
 70
0
  0
SEQEND
  0
POLYLINE
  8
0
  6
CONTINUOUS
 62
0
 66
1
 40
2.0E-002
 41
2.0E-002
 70
0
  0
VERTEX
  8
0
 42
4.1421356E-001
 10
1.66667E-001
 20
1.66667E-001
 70
0
  0
VERTEX
  8
0
 42
0.0
 10
0.0
 20
0.0
 70
0
  0
SEQEND
  0
LINE
  8
0
  6
CONTINUOUS
 62
0
 10
0.0
 20
0.0
 11
-1.0
 21
0.0
  0
ENDBLK
  0
BLOCK
  2
_AH21
  3
_AH
 10
0.0
 20
0.0
 70
64
  0
LINE
  8
0
  6
CONTINUOUS
 62
0
 10
0.0
 20
0.0
 11
-1.0
 21
-1.66667E-001
  0
LINE
  8
0
  6
CONTINUOUS
 62
0
 10
-1.0
 20
-1.66667E-001
 11
-1.0
 21
1.66667E-001
  0
LINE
  8
0
  6
CONTINUOUS
 62
0
 10
-1.0
 20
1.66667E-001
 11
0.0
 21
0.0
  0
ENDBLK
  0
BLOCK
  2
FORMAT-ORIGIN
 10
0.0
 20
0.0
 70
0
  0
POLYLINE
  8
1
  6
CONTINUOUS
 62
4
 66
1
 40
2.0E-002
 41
2.0E-002
 70
0
  0
VERTEX
  8
1
 42
0.0
 10
0.0
 20
0.0
 70
0
  0
VERTEX
  8
1
 42
0.0
 10
0.0
 20
1.0
 70
0
  0
SEQEND
  0
POLYLINE
  8
1
  6
CONTINUOUS
 62
4
 66
1
 40
2.0E-002
 41
2.0E-002
 70
0
  0
VERTEX
  8
1
 42
0.0
 10
0.0
 20
0.0
 70
0
  0
VERTEX
  8
1
 42
0.0
 10
1.0
 20
0.0
 70
0
  0
SEQEND
  0
POINT
  8
1
  6
CONTINUOUS
 62
1
 10
0.0
 20
0.0
  0
POINT
  8
Drafting_Hidden_Entities
  6
CONTINUOUS
 62
1
 10
0.0
 20
0.0
  0
ENDBLK
  0
BLOCK
  2
E_FORMAT_BORDER_NEW1
 10
0.0
 20
0.0
 70
0
  0
ATTDEF
  8
1
  6
CONTINUOUS
 62
1
 10
4.154E+001
 20
1.372
 40
1.9E-001
  1
***-***-****-****
 72
1
 11
4.0875E+001
 21
1.372
  3
DRAWING NO.
  2
DWG.NO.
 70
0
  0
ATTDEF
  8
1
  6
CONTINUOUS
 62
1
 10
4.363E+001
 20
1.372
 40
1.9E-001
  1
*
 72
1
 11
4.325E+001
 21
1.372
  3
REVISION
  2
REV.
 70
0
  0
ATTDEF
  8
1
  6
CONTINUOUS
 62
1
 10
4.409154E+001
 20
1.0527834
 40
1.4E-001
  1
*
 72
1
 11
4.325154E+001
 21
1.0527834
  3
TOTAL NO. OF SHEETS
  2
TOTAL_SHEETS
 70
0
  0
ATTDEF
  8
1
  6
CONTINUOUS
 62
1
 10
3.9565E+001
 20
1.055
 40
1.4E-001
  1
1:1
 41
9.0E-001
 72
1
 11
3.925E+001
 21
1.055
  3
SCALE
  2
SCALE
 70
0
  0
ATTDEF
  8
1
  6
CONTINUOUS
 62
1
 10
4.13719E+001
 20
1.055
 40
1.4E-001
  1
***-***-****-****
 41
5.0E-001
 72
1
 11
4.11269E+001
 21
1.055
  3
USED ON ASSY NO.
  2
USED_ON
 70
0
  0
POLYLINE
  8
105
  6
CONTINUOUS
 62
2
 66
1
 40
2.75E-002
 41
2.75E-002
 70
0
  0
VERTEX
  8
105
 42
0.0
 10
4.35E+001
 20
1.0
 70
0
  0
VERTEX
  8
105
 42
0.0
 10
4.35E+001
 20
3.3E+001
 70
0
  0
SEQEND
  0
LINE
  8
105
  6
CONTINUOUS
 62
2
 10
1.1E+001
 20
3.3E+001
 11
1.1E+001
 21
3.34E+001
  0
TEXT
  8
105
  6
CONTINUOUS
 62
7
 10
2.8132422
 20
3.3587373E+001
 40
1.8737395E-001
  1
8
 41
6.7501361E-001
 72
1
 11
2.7500022
 21
3.3399999E+001
 73
3
  0
LINE
  8
105
  6
CONTINUOUS
 62
2
 10
1.65E+001
 20
3.3E+001
 11
1.65E+001
 21
3.34E+001
  0
TEXT
  8
105
  6
CONTINUOUS
 62
7
 10
1.3813242E+001
 20
3.3587373E+001
 40
1.8737395E-001
  1
6
 41
6.7501361E-001
 72
1
 11
1.3750002E+001
 21
3.3399999E+001
 73
3
  0
LINE
  8
105
  6
CONTINUOUS
 62
2
 10
2.75E+001
 20
3.3E+001
 11
2.75E+001
 21
3.34E+001
  0
TEXT
  8
105
  6
CONTINUOUS
 62
7
 10
2.4813242E+001
 20
3.3587373E+001
 40
1.8737395E-001
  1
4
 41
6.7501361E-001
 72
1
 11
2.4750002E+001
 21
3.3399999E+001
 73
3
  0
LINE
  8
105
  6
CONTINUOUS
 62
2
 10
3.3E+001
 20
3.3E+001
 11
3.3E+001
 21
3.34E+001
  0
TEXT
  8
105
  6
CONTINUOUS
 62
7
 10
3.0313242E+001
 20
3.3587373E+001
 40
1.8737395E-001
  1
3
 41
6.7501361E-001
 72
1
 11
3.0250002E+001
 21
3.3399999E+001
 73
3
  0
TEXT
  8
105
  6
CONTINUOUS
 62
7
 10
1.9313242E+001
 20
3.3587373E+001
 40
1.8737395E-001
  1
5
 41
6.7501361E-001
 72
1
 11
1.9250002E+001
 21
3.3399999E+001
 73
3
  0
TEXT
  8
105
  6
CONTINUOUS
 62
7
 10
3.5813242E+001
 20
3.3587373E+001
 40
1.8737395E-001
  1
2
 41
6.7501361E-001
 72
1
 11
3.5750002E+001
 21
3.3399999E+001
 73
3
  0
LINE
  8
105
  6
CONTINUOUS
 62
2
 10
3.85E+001
 20
3.3E+001
 11
3.85E+001
 21
3.34E+001
  0
POLYLINE
  8
105
  6
CONTINUOUS
 62
2
 66
1
 40
2.75E-002
 41
2.75E-002
 70
0
  0
VERTEX
  8
105
 42
0.0
 10
5.0E-001
 20
3.3E+001
 70
0
  0
VERTEX
  8
105
 42
0.0
 10
4.35E+001
 20
3.3E+001
 70
0
  0
SEQEND
  0
LINE
  8
105
  6
CONTINUOUS
 62
2
 10
5.5
 20
3.3E+001
 11
5.5
 21
3.34E+001
  0
LINE
  8
105
  6
CONTINUOUS
 62
2
 10
2.2E+001
 20
3.3E+001
 11
2.211547E+001
 21
3.32E+001
  0
LINE
  8
105
  6
CONTINUOUS
 62
2
 10
2.2E+001
 20
3.3E+001
 11
2.188453E+001
 21
3.32E+001
  0
LINE
  8
105
  6
CONTINUOUS
 62
2
 10
2.188453E+001
 20
3.32E+001
 11
2.211547E+001
 21
3.32E+001
  0
POLYLINE
  8
105
  6
CONTINUOUS
 62
2
 66
1
 40
2.75E-002
 41
2.75E-002
 70
0
  0
VERTEX
  8
105
 42
0.0
 10
2.2E+001
 20
3.32E+001
 70
0
  0
VERTEX
  8
105
 42
0.0
 10
2.2E+001
 20
3.34E+001
 70
0
  0
SEQEND
  0
TEXT
  8
105
  6
CONTINUOUS
 62
7
 10
8.3132422
 20
3.3587373E+001
 40
1.8737395E-001
  1
7
 41
6.7501361E-001
 72
1
 11
8.2500022
 21
3.3399999E+001
 73
3
  0
TEXT
  8
105
  6
CONTINUOUS
 62
7
 10
1.00002E-001
 20
1.0718683E+001
 40
1.8737395E-001
  1
C
 41
6.7501361E-001
 11
1.00002E-001
 21
1.0624996E+001
 73
2
  0
LINE
  8
105
  6
CONTINUOUS
 62
2
 10
5.0E-001
 20
8.5
 11
1.0E-001
 21
8.5
  0
TEXT
  8
105
  6
CONTINUOUS
 62
7
 10
1.00002E-001
 20
1.4968683E+001
 40
1.8737395E-001
  1
D
 41
6.7501361E-001
 11
1.00002E-001
 21
1.4874996E+001
 73
2
  0
TEXT
  8
105
  6
CONTINUOUS
 62
7
 10
1.00002E-001
 20
1.9218683E+001
 40
1.8737395E-001
  1
E
 41
6.7501361E-001
 11
1.00002E-001
 21
1.9124996E+001
 73
2
  0
TEXT
  8
105
  6
CONTINUOUS
 62
7
 10
1.00002E-001
 20
2.3468683E+001
 40
1.8737395E-001
  1
F
 41
6.7501361E-001
 11
1.00002E-001
 21
2.3374996E+001
 73
2
  0
LINE
  8
105
  6
CONTINUOUS
 62
2
 10
5.0E-001
 20
2.125E+001
 11
1.0E-001
 21
2.125E+001
  0
TEXT
  8
105
  6
CONTINUOUS
 62
7
 10
1.00002E-001
 20
2.7718683E+001
 40
1.8737395E-001
  1
G
 41
6.7501361E-001
 11
1.00002E-001
 21
2.7624996E+001
 73
2
  0
LINE
  8
105
  6
CONTINUOUS
 62
2
 10
5.0E-001
 20
2.55E+001
 11
1.0E-001
 21
2.55E+001
  0
TEXT
  8
105
  6
CONTINUOUS
 62
7
 10
1.00002E-001
 20
3.1968683E+001
 40
1.8737395E-001
  1
H
 41
6.7501361E-001
 11
1.00002E-001
 21
3.1874996E+001
 73
2
  0
TEXT
  8
105
  6
CONTINUOUS
 62
7
 10
3.581324E+001
 20
6.000004E-001
 40
1.8737395E-001
  1
2
 41
6.7501361E-001
 72
1
 11
3.575E+001
 21
6.000004E-001
  0
LINE
  8
105
  6
CONTINUOUS
 62
2
 10
5.0E-001
 20
2.975E+001
 11
1.0E-001
 21
2.975E+001
  0
TEXT
  8
105
  6
CONTINUOUS
 62
7
 10
1.00002E-001
 20
2.2186832
 40
1.8737395E-001
  1
A
 41
6.7501361E-001
 11
1.00002E-001
 21
2.1249962
 73
2
  0
LINE
  8
105
  6
CONTINUOUS
 62
2
 10
5.0E-001
 20
1.275E+001
 11
1.0E-001
 21
1.275E+001
  0
POLYLINE
  8
105
  6
CONTINUOUS
 62
2
 66
1
 40
2.75E-002
 41
2.75E-002
 70
0
  0
VERTEX
  8
105
 42
0.0
 10
5.0E-001
 20
1.0
 70
0
  0
VERTEX
  8
105
 42
0.0
 10
5.0E-001
 20
3.3E+001
 70
0
  0
SEQEND
  0
LINE
  8
105
  6
CONTINUOUS
 62
2
 10
5.0E-001
 20
4.25
 11
1.0E-001
 21
4.25
  0
LINE
  8
105
  6
CONTINUOUS
 62
2
 10
5.0E-001
 20
1.7E+001
 11
3.0E-001
 21
1.711547E+001
  0
LINE
  8
105
  6
CONTINUOUS
 62
2
 10
5.0E-001
 20
1.7E+001
 11
3.0E-001
 21
1.688453E+001
  0
LINE
  8
105
  6
CONTINUOUS
 62
2
 10
3.0E-001
 20
1.688453E+001
 11
3.0E-001
 21
1.711547E+001
  0
POLYLINE
  8
105
  6
CONTINUOUS
 62
2
 66
1
 40
2.75E-002
 41
2.75E-002
 70
0
  0
VERTEX
  8
105
 42
0.0
 10
3.0E-001
 20
1.7E+001
 70
0
  0
VERTEX
  8
105
 42
0.0
 10
1.0E-001
 20
1.7E+001
 70
0
  0
SEQEND
  0
TEXT
  8
105
  6
CONTINUOUS
 62
7
 10
1.00002E-001
 20
6.4686832
 40
1.8737395E-001
  1
B
 41
6.7501361E-001
 11
1.00002E-001
 21
6.3749962
 73
2
  0
LINE
  8
105
  6
CONTINUOUS
 62
2
 10
1.1E+001
 20
1.0
 11
1.1E+001
 21
6.0E-001
  0
TEXT
  8
105
  6
CONTINUOUS
 62
7
 10
2.8132402
 20
6.000004E-001
 40
1.8737395E-001
  1
8
 41
6.7501361E-001
 72
1
 11
2.7500002
 21
6.000004E-001
  0
LINE
  8
105
  6
CONTINUOUS
 62
2
 10
1.65E+001
 20
1.0
 11
1.65E+001
 21
6.0E-001
  0
TEXT
  8
105
  6
CONTINUOUS
 62
7
 10
1.381324E+001
 20
6.000004E-001
 40
1.8737395E-001
  1
6
 41
6.7501361E-001
 72
1
 11
1.375E+001
 21
6.000004E-001
  0
LINE
  8
105
  6
CONTINUOUS
 62
2
 10
2.75E+001
 20
1.0
 11
2.75E+001
 21
6.0E-001
  0
TEXT
  8
105
  6
CONTINUOUS
 62
7
 10
2.481324E+001
 20
6.000004E-001
 40
1.8737395E-001
  1
4
 41
6.7501361E-001
 72
1
 11
2.475E+001
 21
6.000004E-001
  0
LINE
  8
105
  6
CONTINUOUS
 62
2
 10
3.3E+001
 20
1.0
 11
3.3E+001
 21
6.0E-001
  0
TEXT
  8
105
  6
CONTINUOUS
 62
7
 10
3.031324E+001
 20
6.000004E-001
 40
1.8737395E-001
  1
3
 41
6.7501361E-001
 72
1
 11
3.025E+001
 21
6.000004E-001
  0
TEXT
  8
105
  6
CONTINUOUS
 62
7
 10
1.931324E+001
 20
6.000004E-001
 40
1.8737395E-001
  1
5
 41
6.7501361E-001
 72
1
 11
1.925E+001
 21
6.000004E-001
  0
LINE
  8
105
  6
CONTINUOUS
 62
2
 10
5.5
 20
1.0
 11
5.5
 21
6.0E-001
  0
LINE
  8
105
  6
CONTINUOUS
 62
2
 10
2.2E+001
 20
1.0
 11
2.188453E+001
 21
8.0E-001
  0
LINE
  8
105
  6
CONTINUOUS
 62
2
 10
2.2E+001
 20
1.0
 11
2.211547E+001
 21
8.0E-001
  0
LINE
  8
105
  6
CONTINUOUS
 62
2
 10
2.211547E+001
 20
8.0E-001
 11
2.188453E+001
 21
8.0E-001
  0
POLYLINE
  8
105
  6
CONTINUOUS
 62
2
 66
1
 40
2.75E-002
 41
2.75E-002
 70
0
  0
VERTEX
  8
105
 42
0.0
 10
2.2E+001
 20
8.0E-001
 70
0
  0
VERTEX
  8
105
 42
0.0
 10
2.2E+001
 20
6.0E-001
 70
0
  0
SEQEND
  0
TEXT
  8
105
  6
CONTINUOUS
 62
7
 10
8.3132402
 20
6.000004E-001
 40
1.8737395E-001
  1
7
 41
6.7501361E-001
 72
1
 11
8.2500002
 21
6.000004E-001
  0
POLYLINE
  8
105
  6
CONTINUOUS
 62
2
 66
1
 40
2.75E-002
 41
2.75E-002
 70
0
  0
VERTEX
  8
105
 42
0.0
 10
5.0E-001
 20
1.0
 70
0
  0
VERTEX
  8
105
 42
0.0
 10
4.35E+001
 20
1.0
 70
0
  0
SEQEND
  0
LINE
  8
105
  6
CONTINUOUS
 62
2
 10
3.85E+001
 20
1.0
 11
3.85E+001
 21
6.0E-001
  0
TEXT
  8
105
  6
CONTINUOUS
 62
7
 10
4.131324E+001
 20
6.000004E-001
 40
1.8737395E-001
  1
1
 41
6.7501361E-001
 72
1
 11
4.125E+001
 21
6.000004E-001
  0
TEXT
  8
105
  6
CONTINUOUS
 62
7
 10
4.1807868E+001
 20
1.118182
 40
8.9963975E-002
  1
SHEET      OF
 41
1.0120937
  0
TEXT
  8
105
  6
CONTINUOUS
 62
7
 10
3.9795215E+001
 20
1.118182
 40
8.9963975E-002
  1
USED ON ASSY NO.
 41
5.0E-001
  0
TEXT
  8
105
  6
CONTINUOUS
 62
7
 10
3.8412672E+001
 20
1.1297716
 40
9.0E-002
  1
SCALE
 41
6.3E-001
  0
TEXT
  8
105
  6
CONTINUOUS
 62
7
 10
3.8799742E+001
 20
1.617162
 40
8.9963975E-002
  1
DWG. NO.
 41
1.0120937
  0
TEXT
  8
105
  6
CONTINUOUS
 62
7
 10
3.8711918E+001
 20
1.6167023
 40
8.9963975E-002
  1
SIZE
 41
8.3E-001
 72
1
 11
3.8562578E+001
 21
1.6167023
  0
TEXT
  8
105
  6
CONTINUOUS
 62
7
 10
3.8484058E+001
 20
1.3727215
 40
1.8737395E-001
  1
E
 41
9.0001815E-001
  0
TEXT
  8
105
  6
CONTINUOUS
 62
7
 10
4.3410086E+001
 20
1.6167023
 40
8.9963975E-002
  1
REV.
 41
8.3E-001
 72
1
 11
4.3260746E+001
 21
1.6167023
  0
LINE
  8
105
  6
CONTINUOUS
 62
2
 10
3.875E+001
 20
1.25
 11
3.875E+001
 21
1.75
  0
LINE
  8
105
  6
CONTINUOUS
 62
2
 10
3.838E+001
 20
1.25
 11
4.35E+001
 21
1.25
  0
POLYLINE
  8
105
  6
CONTINUOUS
 62
2
 66
1
 40
2.75E-002
 41
2.75E-002
 70
0
  0
VERTEX
  8
105
 42
0.0
 10
3.838E+001
 20
1.75
 70
0
  0
VERTEX
  8
105
 42
0.0
 10
4.35E+001
 20
1.75
 70
0
  0
SEQEND
  0
LINE
  8
105
  6
CONTINUOUS
 62
2
 10
4.3E+001
 20
1.25
 11
4.3E+001
 21
1.75
  0
LINE
  8
105
  6
CONTINUOUS
 62
2
 10
4.175E+001
 20
1.0
 11
4.175E+001
 21
1.25
  0
LINE
  8
1
  6
CONTINUOUS
 62
2
 10
3.975E+001
 20
1.0
 11
3.975E+001
 21
1.25
  0
TEXT
  8
105
  6
CONTINUOUS
 62
7
 10
4.4026213E+001
 20
2.2181347
 40
1.8737395E-001
  1
A
 41
6.7501361E-001
 72
2
 11
4.3899733E+001
 21
2.1244477
 73
2
  0
LINE
  8
105
  6
CONTINUOUS
 62
2
 10
4.35E+001
 20
4.25
 11
4.39E+001
 21
4.25
  0
TEXT
  8
105
  6
CONTINUOUS
 62
7
 10
4.4026213E+001
 20
6.4681347
 40
1.8737395E-001
  1
B
 41
6.7501361E-001
 72
2
 11
4.3899733E+001
 21
6.3744477
 73
2
  0
TEXT
  8
105
  6
CONTINUOUS
 62
7
 10
4.4026213E+001
 20
1.4968135E+001
 40
1.8737395E-001
  1
D
 41
6.7501361E-001
 72
2
 11
4.3899733E+001
 21
1.4874448E+001
 73
2
  0
LINE
  8
105
  6
CONTINUOUS
 62
2
 10
4.35E+001
 20
1.7E+001
 11
4.37E+001
 21
1.688453E+001
  0
LINE
  8
105
  6
CONTINUOUS
 62
2
 10
4.35E+001
 20
1.7E+001
 11
4.37E+001
 21
1.711547E+001
  0
LINE
  8
105
  6
CONTINUOUS
 62
2
 10
4.37E+001
 20
1.711547E+001
 11
4.37E+001
 21
1.688453E+001
  0
POLYLINE
  8
105
  6
CONTINUOUS
 62
2
 66
1
 40
2.75E-002
 41
2.75E-002
 70
0
  0
VERTEX
  8
105
 42
0.0
 10
4.37E+001
 20
1.7E+001
 70
0
  0
VERTEX
  8
105
 42
0.0
 10
4.39E+001
 20
1.7E+001
 70
0
  0
SEQEND
  0
TEXT
  8
105
  6
CONTINUOUS
 62
7
 10
4.4026213E+001
 20
1.9218135E+001
 40
1.8737395E-001
  1
E
 41
6.7501361E-001
 72
2
 11
4.3899733E+001
 21
1.9124448E+001
 73
2
  0
TEXT
  8
105
  6
CONTINUOUS
 62
7
 10
4.4026213E+001
 20
2.3468135E+001
 40
1.8737395E-001
  1
F
 41
6.7501361E-001
 72
2
 11
4.3899733E+001
 21
2.3374448E+001
 73
2
  0
LINE
  8
105
  6
CONTINUOUS
 62
2
 10
4.35E+001
 20
2.55E+001
 11
4.39E+001
 21
2.55E+001
  0
TEXT
  8
105
  6
CONTINUOUS
 62
7
 10
4.4026213E+001
 20
2.7718135E+001
 40
1.8737395E-001
  1
G
 41
6.7501361E-001
 72
2
 11
4.3899733E+001
 21
2.7624448E+001
 73
2
  0
LINE
  8
105
  6
CONTINUOUS
 62
2
 10
4.35E+001
 20
2.975E+001
 11
4.39E+001
 21
2.975E+001
  0
TEXT
  8
105
  6
CONTINUOUS
 62
7
 10
4.4026213E+001
 20
3.1968135E+001
 40
1.8737395E-001
  1
H
 41
6.7501361E-001
 72
2
 11
4.3899733E+001
 21
3.1874448E+001
 73
2
  0
LINE
  8
105
  6
CONTINUOUS
 62
2
 10
4.35E+001
 20
2.125E+001
 11
4.39E+001
 21
2.125E+001
  0
LINE
  8
105
  6
CONTINUOUS
 62
6
 10
4.39305E+001
 20
7.0E-003
 11
4.3993E+001
 21
7.0E-003
  0
LINE
  8
105
  6
CONTINUOUS
 62
6
 10
4.3993E+001
 20
7.0E-003
 11
4.3993E+001
 21
6.95E-002
  0
LINE
  8
105
  6
CONTINUOUS
 62
6
 10
4.39305E+001
 20
3.3993E+001
 11
4.3993E+001
 21
3.3993E+001
  0
LINE
  8
105
  6
CONTINUOUS
 62
6
 10
4.3993E+001
 20
3.39305E+001
 11
4.3993E+001
 21
3.3993E+001
  0
LINE
  8
105
  6
CONTINUOUS
 62
6
 10
7.0E-003
 20
3.3993E+001
 11
6.95E-002
 21
3.3993E+001
  0
LINE
  8
105
  6
CONTINUOUS
 62
6
 10
7.0E-003
 20
3.39305E+001
 11
7.0E-003
 21
3.3993E+001
  0
LINE
  8
105
  6
CONTINUOUS
 62
6
 10
7.0E-003
 20
7.0E-003
 11
6.95E-002
 21
7.0E-003
  0
LINE
  8
105
  6
CONTINUOUS
 62
6
 10
7.0E-003
 20
7.0E-003
 11
7.0E-003
 21
6.95E-002
  0
LINE
  8
105
  6
CONTINUOUS
 62
6
 10
4.39305E+001
 20
7.0E-003
 11
4.3993E+001
 21
7.0E-003
  0
LINE
  8
105
  6
CONTINUOUS
 62
6
 10
4.3993E+001
 20
7.0E-003
 11
4.3993E+001
 21
6.95E-002
  0
LINE
  8
105
  6
CONTINUOUS
 62
6
 10
4.39305E+001
 20
3.3993E+001
 11
4.3993E+001
 21
3.3993E+001
  0
LINE
  8
105
  6
CONTINUOUS
 62
6
 10
4.3993E+001
 20
3.39305E+001
 11
4.3993E+001
 21
3.3993E+001
  0
LINE
  8
105
  6
CONTINUOUS
 62
2
 10
4.35E+001
 20
8.5
 11
4.39E+001
 21
8.5
  0
LINE
  8
105
  6
CONTINUOUS
 62
2
 10
4.35E+001
 20
1.275E+001
 11
4.39E+001
 21
1.275E+001
  0
TEXT
  8
105
  6
CONTINUOUS
 62
7
 10
4.4026213E+001
 20
1.071881E+001
 40
1.8737395E-001
  1
C
 41
6.7501361E-001
 72
2
 11
4.3899733E+001
 21
1.0625123E+001
 73
2
  0
TEXT
  8
105
  6
CONTINUOUS
 62
7
 10
4.131324E+001
 20
3.3212465E+001
 40
1.8737395E-001
  1
1
 41
6.7501361E-001
 72
1
 11
4.125E+001
 21
3.3212465E+001
  0
POLYLINE
  8
1
  6
CONTINUOUS
 62
2
 66
1
 40
2.75E-002
 41
2.75E-002
 70
0
  0
VERTEX
  8
1
 42
0.0
 10
3.838E+001
 20
1.75
 70
0
  0
VERTEX
  8
1
 42
0.0
 10
3.838E+001
 20
1.0
 70
0
  0
SEQEND
  0
POINT
  8
Drafting_Hidden_Entities
  6
CONTINUOUS
 62
1
 10
0.0
 20
0.0
  0
ENDBLK
  0
BLOCK
  2
*TX69
  3
*TX
 10
0.0
 20
0.0
 70
65
  0
TEXT
  8
105
  6
CONTINUOUS
 62
7
 10
2.1583194E-001
 20
0.0
 40
7.9933978E-002
  1
FINISH
 41
9.0004253E-001
 72
1
 11
0.0
 21
0.0
  0
TEXT
  8
105
  6
CONTINUOUS
 62
7
 10
2.8777592E-001
 20
-1.1990097E-001
 40
7.9933978E-002
  1
MACHINED
 41
9.0004253E-001
 72
1
 11
0.0
 21
-1.1990097E-001
  0
TEXT
  8
105
  6
CONTINUOUS
 62
7
 10
2.8777592E-001
 20
-2.3980193E-001
 40
7.9933978E-002
  1
SURFACES
 41
9.0004253E-001
 72
1
 11
0.0
 21
-2.3980193E-001
  0
ENDBLK
  0
BLOCK
  2
*TX70
  3
*TX
 10
0.0
 20
0.0
 70
65
  0
TEXT
  8
105
  6
CONTINUOUS
 62
7
 10
2.1583194E-001
 20
0.0
 40
7.9933978E-002
  1
UNLESS
 41
9.0004253E-001
 72
1
 11
0.0
 21
0.0
  0
TEXT
  8
105
  6
CONTINUOUS
 62
7
 10
3.2374791E-001
 20
-1.1990097E-001
 40
7.9933978E-002
  1
OTHERWISE
 41
9.0004253E-001
 72
1
 11
0.0
 21
-1.1990097E-001
  0
TEXT
  8
105
  6
CONTINUOUS
 62
7
 10
1.7985995E-001
 20
-2.3980193E-001
 40
7.9933978E-002
  1
NOTED
 41
9.0004253E-001
 72
1
 11
0.0
 21
-2.3980193E-001
  0
ENDBLK
  0
BLOCK
  2
E_TITLEBLOCK_NEW1
 10
0.0
 20
0.0
 70
0
  0
ATTDEF
  8
1
  6
CONTINUOUS
 62
1
 10
4.166E+001
 20
2.798
 40
1.8E-001
  1
*
 41
8.0E-001
 72
1
 11
4.094E+001
 21
2.708
  3
TITLE LINE 1
  2
TITLELINE1
 70
0
 73
2
 74
2
  0
ATTDEF
  8
1
  6
CONTINUOUS
 62
1
 10
4.166E+001
 20
2.536
 40
1.8E-001
  1
*
 41
8.0E-001
 72
1
 11
4.094E+001
 21
2.446
  3
TITLE LINE 2
  2
TITLELINE2
 70
0
 73
2
 74
2
  0
ATTDEF
  8
1
  6
CONTINUOUS
 62
1
 10
4.166E+001
 20
2.274
 40
1.8E-001
  1
*
 41
8.0E-001
 72
1
 11
4.094E+001
 21
2.184
  3
TITLE LINE 3
  2
TITLELINE3
 70
0
 73
2
 74
2
  0
ATTDEF
  8
1
  6
CONTINUOUS
 62
1
 10
4.166E+001
 20
2.012
 40
1.8E-001
  1
*
 41
8.0E-001
 72
1
 11
4.094E+001
 21
1.922
  3
TITLE LINE 4
  2
TITLELINE4
 70
0
 73
2
 74
2
  0
ATTDEF
  8
1
  6
CONTINUOUS
 62
1
 10
3.7735E+001
 20
3.161
 40
9.0E-002
  1
N/A
 41
7.5E-001
 72
1
 11
3.71275E+001
 21
3.161
  3
TRACKING NO. LINE 1
  2
TRACKING_NO.LINE_1
 70
0
  0
ATTDEF
  8
1
  6
CONTINUOUS
 62
1
 10
3.7735E+001
 20
3.026
 40
9.0E-002
  1
 
 41
7.5E-001
 72
1
 11
3.71275E+001
 21
3.026
  3
TRACKING NO. LINE 2
  2
TRACKING_NO.LINE_2
 70
0
  0
ATTDEF
  8
1
  6
CONTINUOUS
 62
1
 10
3.6209859E+001
 20
2.1937957
 40
1.4E-001
  1
*
 41
5.0E-001
  3
DRAWN
  2
DRAWN
 70
0
  0
ATTDEF
  8
1
  6
CONTINUOUS
 62
1
 10
3.83275E+001
 20
2.1937957
 40
1.4E-001
  1
DDMMMYY
 41
5.0E-001
 72
1
 11
3.79775E+001
 21
2.1937957
  3
DRAWN DATE
  2
DRAWN_DATE
 70
0
  0
ATTDEF
  8
1
  6
CONTINUOUS
 62
1
 10
3.6209859E+001
 20
1.8142198
 40
1.4E-001
  1
 
 41
5.0E-001
  3
CHECKED
  2
CHECKED
 70
0
  0
ATTDEF
  8
1
  6
CONTINUOUS
 62
1
 10
3.83275E+001
 20
1.8142198
 40
1.4E-001
  1
 
 41
5.0E-001
 72
1
 11
3.79775E+001
 21
1.8142198
  3
CHECKED DATE
  2
CHKED_DATE
 70
0
  0
ATTDEF
  8
1
  6
CONTINUOUS
 62
1
 10
3.6209859E+001
 20
1.4346099
 40
1.4E-001
  1
 
 41
5.0E-001
  3
APPROVED NO. 1
  2
APPROVED_NO.1
 70
0
  0
ATTDEF
  8
1
  6
CONTINUOUS
 62
1
 10
3.83625E+001
 20
1.4346099
 40
1.4E-001
  1
 
 41
5.0E-001
 72
1
 11
3.79775E+001
 21
1.4346099
  3
APPROVED NO. 1 DATE
  2
APPVD_DATE1
 70
0
  0
ATTDEF
  8
1
  6
CONTINUOUS
 62
1
 10
3.6209859E+001
 20
1.055
 40
1.4E-001
  1
 
 41
5.0E-001
  3
APPROVED NO. 2
  2
APPROVED_NO.2
 70
0
  0
ATTDEF
  8
1
  6
CONTINUOUS
 62
1
 10
3.83625E+001
 20
1.055
 40
1.4E-001
  1
 
 41
5.0E-001
 72
1
 11
3.79775E+001
 21
1.055
  3
APPROVED NO. 2 DATE
  2
APPVD_DATE2
 70
0
  0
ATTDEF
  8
1
  6
CONTINUOUS
 62
1
 10
3.368562E+001
 20
2.7568901
 40
9.0E-002
  1
N/A
 41
9.0E-001
  3
FRACTIONAL TOLERANCE
  2
FRACTION_TOL.
 70
0
  0
ATTDEF
  8
1
  6
CONTINUOUS
 62
1
 10
3.4847172E+001
 20
2.7613887
 40
9.0E-002
  1
.1
 41
9.0E-001
  3
1PL DECIMAL TOLERANCE
  2
1PL_DEC._TOL.
 70
0
  0
ATTDEF
  8
1
  6
CONTINUOUS
 62
1
 10
3.4847172E+001
 20
2.6431038
 40
9.0E-002
  1
.01
 41
9.0E-001
  3
2PL DECIMAL TOLERANCE
  2
2PL_DEC._TOL.
 70
0
  0
ATTDEF
  8
1
  6
CONTINUOUS
 62
1
 10
3.4848051E+001
 20
2.5290709
 40
9.0E-002
  1
.005
 41
9.0E-001
  3
3PL DECIMAL TOLERANCE
  2
3PL_DEC._TOL.
 70
0
  0
ATTDEF
  8
1
  6
CONTINUOUS
 62
1
 10
3.5493299E+001
 20
2.7618674
 40
9.0E-002
  1
.50%%d
 41
9.0E-001
  3
ANGULAR TOLERANCE
  2
ANG.TOL.
 70
0
  0
ATTDEF
  8
1
  6
CONTINUOUS
 62
1
 10
3.29125E+001
 20
2.3574177
 40
1.4E-001
  1
*
 41
7.5E-001
 72
1
 11
3.2125E+001
 21
2.2874177
  3
MATERIAL SPEC LINE 1
  2
MATERIAL_LINE_1
 70
0
 73
2
 74
2
  0
ATTDEF
  8
1
  6
CONTINUOUS
 62
1
 10
3.29125E+001
 20
2.1474177
 40
1.4E-001
  1
 
 41
7.5E-001
 72
1
 11
3.2125E+001
 21
2.0774177
  3
MATERIAL SPEC LINE 2
  2
MATERIAL_LINE_2
 70
0
 73
2
 74
2
  0
ATTDEF
  8
1
  6
CONTINUOUS
 62
1
 10
3.219533E+001
 20
1.6953186
 40
8.0E-002
  1
125
 41
1.013
 72
1
 11
3.195221E+001
 21
1.6953186
  3
FINISH SPEC
  2
FINISH
 70
0
  0
LINE
  8
105
  6
CONTINUOUS
 62
2
 10
3.0875E+001
 20
2.5823596
 11
3.3375E+001
 21
2.5823596
  0
LINE
  8
105
  6
CONTINUOUS
 62
2
 10
3.0875E+001
 20
1.9307497
 11
3.3375E+001
 21
1.9307497
  0
LINE
  8
105
  6
CONTINUOUS
 62
2
 10
3.0875E+001
 20
1.3796099
 11
3.3375E+001
 21
1.3796099
  0
LINE
  8
1
  6
CONTINUOUS
 62
2
 10
3.3375E+001
 20
2.5
 11
3.5875E+001
 21
2.5
  0
TEXT
  8
1
  6
CONTINUOUS
 62
7
 10
3.5758915E+001
 20
2.4380054
 40
1.2E-001
  1
THIRD ANGLE PROJECTION
 41
8.75E-001
 72
1
 11
3.4603915E+001
 21
2.3780054
 73
2
  0
LINE
  8
1
  6
CONTINUOUS
 62
2
 10
3.3375E+001
 20
2.25
 11
3.5875E+001
 21
2.25
  0
TEXT
  8
1
  6
CONTINUOUS
 62
7
 10
3.713E+001
 20
2.7442028
 40
9.0E-002
  1
APPROVALS
 72
1
 11
3.6725E+001
 21
2.6992028
 73
2
  0
TEXT
  8
1
  6
CONTINUOUS
 62
7
 10
3.81575E+001
 20
2.7442028
 40
9.0E-002
  1
DATE
 72
1
 11
3.79775E+001
 21
2.6992028
 73
2
  0
LINE
  8
105
  6
CONTINUOUS
 62
2
 10
3.5875E+001
 20
1.3796099
 11
3.838E+001
 21
1.3796099
  0
LINE
  8
105
  6
CONTINUOUS
 62
2
 10
3.5875E+001
 20
1.7592198
 11
3.838E+001
 21
1.7592198
  0
LINE
  8
105
  6
CONTINUOUS
 62
2
 10
3.5875E+001
 20
2.1387957
 11
3.838E+001
 21
2.1387957
  0
LINE
  8
105
  6
CONTINUOUS
 62
2
 10
3.5875E+001
 20
2.5184056
 11
3.838E+001
 21
2.5184056
  0
LINE
  8
1
  6
CENTERLINE
 62
7
 10
3.535019E+001
 20
1.625
 11
3.4542246E+001
 21
1.625
  0
CIRCLE
  8
1
  6
CONTINUOUS
 62
7
 10
3.4164629E+001
 20
1.625
 40
2.3996436E-001
  0
CIRCLE
  8
1
  6
CONTINUOUS
 62
7
 10
3.4164629E+001
 20
1.625
 40
1.1202338E-001
  0
LINE
  8
1
  6
CONTINUOUS
 62
7
 10
3.4195879E+001
 20
1.625
 11
3.4133379E+001
 21
1.625
  0
LINE
  8
1
  6
CONTINUOUS
 62
7
 10
3.4164629E+001
 20
1.65625
 11
3.4164629E+001
 21
1.59375
  0
LINE
  8
1
  6
CONTINUOUS
 62
7
 10
3.4258379E+001
 20
1.625
 11
3.4467093E+001
 21
1.625
  0
LINE
  8
1
  6
CONTINUOUS
 62
7
 10
3.4164629E+001
 20
1.71875
 11
3.4164629E+001
 21
1.9274644
  0
LINE
  8
1
  6
CONTINUOUS
 62
7
 10
3.4070879E+001
 20
1.625
 11
3.3862165E+001
 21
1.625
  0
LINE
  8
1
  6
CONTINUOUS
 62
7
 10
3.4164629E+001
 20
1.53125
 11
3.4164629E+001
 21
1.3225356
  0
LINE
  8
1
  6
CONTINUOUS
 62
7
 10
3.5212647E+001
 20
1.3850356
 11
3.5212647E+001
 21
1.8649644
  0
LINE
  8
1
  6
CONTINUOUS
 62
7
 10
3.4685922E+001
 20
1.505
 11
3.4685922E+001
 21
1.745
  0
LINE
  8
1
  6
CONTINUOUS
 62
7
 10
3.4685922E+001
 20
1.745
 11
3.5212647E+001
 21
1.8649644
  0
LINE
  8
1
  6
CONTINUOUS
 62
7
 10
3.4685922E+001
 20
1.505
 11
3.5212647E+001
 21
1.3850356
  0
TEXT
  8
105
  6
CONTINUOUS
 62
7
 10
3.0950597E+001
 20
2.4340856
 40
7.9933978E-002
  1
MATERIAL
 41
9.0004253E-001
  0
TEXT
  8
105
  6
CONTINUOUS
 62
7
 10
3.1050353E+001
 20
1.4057559
 40
7.9933978E-002
  1
DEBURR & BREAK ALL SHARP EDGES
 41
9.0004253E-001
  0
TEXT
  8
105
  6
CONTINUOUS
 62
7
 10
3.1034475E+001
 20
1.11866
 40
1.2494997E-001
  1
DO NOT SCALE DRAWING
 41
8.8E-001
  0
TEXT
  8
105
  6
CONTINUOUS
 62
7
 10
3.5930515E+001
 20
3.5233599
 40
9.0E-002
  1
TRACKING NO.
 11
3.5930515E+001
 21
3.4333599
 73
3
  0
TEXT
  8
105
  6
CONTINUOUS
 62
7
 10
3.5932596E+001
 20
2.3857036
 40
8.9963975E-002
  1
DRAWN
 41
9.8979592E-001
  0
TEXT
  8
105
  6
CONTINUOUS
 62
7
 10
3.5932596E+001
 20
2.0064337
 40
8.9963975E-002
  1
CHECKED
 41
8.9984883E-001
  0
TEXT
  8
105
  6
CONTINUOUS
 62
7
 10
3.5932596E+001
 20
1.6263818
 40
8.9963975E-002
  1
APPROVED
 41
8.9984883E-001
  0
TEXT
  8
105
  6
CONTINUOUS
 62
7
 10
3.5932596E+001
 20
1.2470779
 40
8.9963975E-002
  1
APPROVED
 41
8.9984883E-001
  0
TEXT
  8
105
  6
CONTINUOUS
 62
7
 10
3.3444892E+001
 20
3.3944304
 40
7.493598E-002
  1
DIM & TOL PER ASME Y14.5 .
 41
1.1252269
  0
TEXT
  8
105
  6
CONTINUOUS
 62
7
 10
3.3444892E+001
 20
3.2744304
 40
7.9933978E-002
  1
UNLESS OTHERWISE SPECIFIED
 41
1.0127605
  0
TEXT
  8
105
  6
CONTINUOUS
 62
7
 10
3.3444892E+001
 20
3.1544304
 40
7.9933978E-002
  1
DIMENSIONS ARE IN INCHES
 41
1.0127605
  0
TEXT
  8
105
  6
CONTINUOUS
 62
7
 10
3.3444892E+001
 20
3.0344304
 40
7.9933978E-002
  1
TOLERANCES ARE:
 41
1.0127605
  0
TEXT
  8
105
  6
CONTINUOUS
 62
7
 10
3.3483455E+001
 20
2.9044345
 40
7.9933978E-002
  1
FRACTIONS     DECIMAL     ANGLES
 41
9.0004253E-001
  0
TEXT
  8
105
  6
CONTINUOUS
 62
7
 10
3.535496E+001
 20
2.7571351
 40
8.9963975E-002
  1
%%p
 41
8.9984883E-001
  0
TEXT
  8
105
  6
CONTINUOUS
 62
7
 10
3.4336562E+001
 20
2.6436525
 40
8.9963975E-002
  1
.XX  %%p
 41
8.9984883E-001
  0
TEXT
  8
105
  6
CONTINUOUS
 62
7
 10
3.4336562E+001
 20
2.7620059
 40
8.9963975E-002
  1
.X   %%p
 41
8.9984883E-001
  0
TEXT
  8
105
  6
CONTINUOUS
 62
7
 10
3.3547454E+001
 20
2.7571351
 40
8.9963975E-002
  1
%%p
 41
8.9984883E-001
  0
TEXT
  8
105
  6
CONTINUOUS
 62
7
 10
3.0950597E+001
 20
3.3448141
 40
7.9933978E-002
  1
DOCUMENT CONTROL STAMP
 41
9.0004253E-001
  0
TEXT
  8
105
  6
CONTINUOUS
 62
7
 10
3.4338327E+001
 20
2.5277516
 40
8.9963975E-002
  1
.XXX %%p
 41
8.9984883E-001
  0
POLYLINE
  8
1
  6
CONTINUOUS
 62
2
 66
1
 40
2.75E-002
 41
2.75E-002
 70
0
  0
VERTEX
  8
1
 42
0.0
 10
3.0875E+001
 20
1.0
 70
0
  0
VERTEX
  8
1
 42
0.0
 10
3.0875E+001
 20
3.5
 70
0
  0
SEQEND
  0
POLYLINE
  8
105
  6
CONTINUOUS
 62
2
 66
1
 40
2.75E-002
 41
2.75E-002
 70
0
  0
VERTEX
  8
105
 42
0.0
 10
3.0875E+001
 20
3.5
 70
0
  0
VERTEX
  8
105
 42
0.0
 10
4.35E+001
 20
3.5
 70
0
  0
SEQEND
  0
POLYLINE
  8
1
  6
CONTINUOUS
 62
2
 66
1
 40
2.75E-002
 41
2.75E-002
 70
0
  0
VERTEX
  8
1
 42
0.0
 10
3.3375E+001
 20
3.5
 70
0
  0
VERTEX
  8
1
 42
0.0
 10
3.3375E+001
 20
1.0
 70
0
  0
SEQEND
  0
POLYLINE
  8
1
  6
CONTINUOUS
 62
2
 66
1
 40
2.75E-002
 41
2.75E-002
 70
0
  0
VERTEX
  8
1
 42
0.0
 10
3.5875E+001
 20
3.5
 70
0
  0
VERTEX
  8
1
 42
0.0
 10
3.5875E+001
 20
1.0
 70
0
  0
SEQEND
  0
LINE
  8
1
  6
CONTINUOUS
 62
2
 10
3.5875E+001
 20
2.88
 11
4.35E+001
 21
2.88
  0
POLYLINE
  8
1
  6
CONTINUOUS
 62
2
 66
1
 40
2.75E-002
 41
2.75E-002
 70
0
  0
VERTEX
  8
1
 42
0.0
 10
3.838E+001
 20
3.5
 70
0
  0
VERTEX
  8
1
 42
0.0
 10
3.838E+001
 20
1.0
 70
0
  0
SEQEND
  0
LINE
  8
1
  6
CONTINUOUS
 62
2
 10
3.7575E+001
 20
2.88
 11
3.7575E+001
 21
1.0
  0
LINE
  8
105
  6
CONTINUOUS
 62
2
 10
3.8375E+001
 20
1.75
 11
4.35E+001
 21
1.75
  0
LINE
  8
106
  6
CONTINUOUS
 62
2
 10
3.585E+001
 20
3.25E+001
 11
4.35E+001
 21
3.25E+001
  0
LINE
  8
106
  6
CONTINUOUS
 62
2
 10
3.585E+001
 20
3.275E+001
 11
4.35E+001
 21
3.275E+001
  0
LINE
  8
106
  6
CONTINUOUS
 62
2
 10
3.585E+001
 20
3.25E+001
 11
3.585E+001
 21
3.3E+001
  0
LINE
  8
106
  6
CONTINUOUS
 62
2
 10
3.685E+001
 20
3.25E+001
 11
3.685E+001
 21
3.275E+001
  0
LINE
  8
106
  6
CONTINUOUS
 62
2
 10
3.645E+001
 20
3.25E+001
 11
3.645E+001
 21
3.275E+001
  0
TEXT
  8
106
  6
CONTINUOUS
 62
7
 10
3.6801475E+001
 20
3.2668922E+001
 40
8.9963975E-002
  1
REV
 41
1.1247166
 72
1
 11
3.6649699E+001
 21
3.262394E+001
 73
2
  0
TEXT
  8
106
  6
CONTINUOUS
 62
7
 10
3.6352067E+001
 20
3.2668922E+001
 40
8.9963975E-002
  1
ZONE
 41
1.1247166
 72
1
 11
3.6149699E+001
 21
3.262394E+001
 73
2
  0
TEXT
  8
106
  6
CONTINUOUS
 62
7
 10
3.9531211E+001
 20
3.2668922E+001
 40
8.9963975E-002
  1
DESCRIPTION
 41
1.1247166
 72
1
 11
3.8974699E+001
 21
3.262394E+001
 73
2
  0
TEXT
  8
106
  6
CONTINUOUS
 62
7
 10
4.0484132E+001
 20
3.2918952E+001
 40
8.9963975E-002
  1
REVISION HISTORY
 41
1.1247166
 72
1
 11
3.967466E+001
 21
3.287397E+001
 73
2
  0
TEXT
  8
106
  6
CONTINUOUS
 62
7
 10
4.1902067E+001
 20
3.2668922E+001
 40
8.9963975E-002
  1
DATE
 41
1.1247166
 72
1
 11
4.1699699E+001
 21
3.262394E+001
 73
2
  0
TEXT
  8
106
  6
CONTINUOUS
 62
7
 10
4.3304435E+001
 20
3.2668922E+001
 40
8.9963975E-002
  1
APPROVED
 41
1.1247166
 72
1
 11
4.2899699E+001
 21
3.262394E+001
 73
2
  0
LINE
  8
106
  6
CONTINUOUS
 62
2
 10
4.23E+001
 20
3.25E+001
 11
4.23E+001
 21
3.275E+001
  0
LINE
  8
106
  6
CONTINUOUS
 62
2
 10
4.11E+001
 20
3.25E+001
 11
4.11E+001
 21
3.275E+001
  0
LINE
  8
1
  6
CONTINUOUS
 62
2
 10
4.35E+001
 20
3.7254199
 11
3.3375E+001
 21
3.7254199
  0
LINE
  8
1
  6
CONTINUOUS
 62
2
 10
3.3375E+001
 20
3.5
 11
3.3375E+001
 21
3.7254199
  0
TEXT
  8
1
  6
CONTINUOUS
 62
7
 10
4.22875E+001
 20
3.6629199
 40
1.0E-001
  1
EACH SHEET OF MULTI-SHEET DRAWINGS SHALL ALWAYS HAVE THE SAME REVISION LEVEL.
 72
1
 11
3.84375E+001
 21
3.6129199
 73
2
  0
LINE
  8
1
  6
CONTINUOUS
 62
2
 10
4.35E+001
 20
1.125
 11
4.35E+001
 21
1.0
  0
LINE
  8
1
  6
CONTINUOUS
 62
2
 10
4.3375E+001
 20
1.0
 11
4.35E+001
 21
1.0
  0
TEXT
  8
1
  6
CONTINUOUS
 62
7
 10
4.235E+001
 20
1.05
 40
1.4E-001
  1
 1
  0
LINE
  8
105
  6
CONTINUOUS
 62
3
 10
4.0692952E+001
 20
3.4508281
 11
4.0704458E+001
 21
3.4508281
  0
LINE
  8
105
  6
CONTINUOUS
 62
3
 10
4.0692952E+001
 20
3.2206617
 11
4.0704349E+001
 21
3.2206617
  0
LINE
  8
105
  6
CONTINUOUS
 62
3
 10
4.081285E+001
 20
3.2196281
 11
4.0824247E+001
 21
3.2196281
  0
LINE
  8
105
  6
CONTINUOUS
 62
3
 10
4.081285E+001
 20
3.4518617
 11
4.0824247E+001
 21
3.4518617
  0
LINE
  8
105
  6
CONTINUOUS
 62
3
 10
4.0933509E+001
 20
3.4518617
 11
4.0944879E+001
 21
3.4518617
  0
LINE
  8
105
  6
CONTINUOUS
 62
3
 10
4.0933509E+001
 20
3.2196281
 11
4.0944879E+001
 21
3.2196281
  0
LINE
  8
105
  6
CONTINUOUS
 62
3
 10
4.1054141E+001
 20
3.2196281
 11
4.1065538E+001
 21
3.2196281
  0
LINE
  8
105
  6
CONTINUOUS
 62
3
 10
4.1054141E+001
 20
3.4518617
 11
4.1065538E+001
 21
3.4518617
  0
LINE
  8
105
  6
CONTINUOUS
 62
3
 10
4.1174011E+001
 20
3.2206617
 11
4.1185435E+001
 21
3.2206617
  0
LINE
  8
105
  6
CONTINUOUS
 62
3
 10
4.1174011E+001
 20
3.4508281
 11
4.1185435E+001
 21
3.4508281
  0
LINE
  8
105
  6
CONTINUOUS
 62
3
 10
4.0879463E+001
 20
3.3816313
 11
4.0879463E+001
 21
3.3815497
  0
ARC
  8
105
  6
CONTINUOUS
 62
3
 10
4.1179859E+001
 20
3.4127209
 40
3.848799E-002
 50
3.7867526E+001
 51
8.1712261E+001
  0
ARC
  8
105
  6
CONTINUOUS
 62
3
 10
4.1179859E+001
 20
3.2587689
 40
3.848799E-002
 50
2.7828778E+002
 51
3.2213251E+002
  0
ARC
  8
105
  6
CONTINUOUS
 62
3
 10
4.1104869E+001
 20
3.3547849
 40
1.3327996E-001
 50
2.0072373E+001
 51
3.7734771E+001
  0
ARC
  8
105
  6
CONTINUOUS
 62
3
 10
4.1060179E+001
 20
3.2566201
 40
3.737279E-002
 50
2.7826635E+002
 51
2.8814947E+002
  0
ARC
  8
105
  6
CONTINUOUS
 62
3
 10
4.1059989E+001
 20
3.2569465
 40
3.772639E-002
 50
2.8827111E+002
 51
3.240097E+002
  0
ARC
  8
105
  6
CONTINUOUS
 62
3
 10
4.105969E+001
 20
3.2569465
 40
3.772639E-002
 50
2.1598916E+002
 51
2.6154246E+002
  0
ARC
  8
105
  6
CONTINUOUS
 62
3
 10
4.1138543E+001
 20
3.3176025
 40
1.3722396E-001
 50
2.0329448E+002
 51
2.177019E+002
  0
ARC
  8
105
  6
CONTINUOUS
 62
3
 10
4.1254578E+001
 20
3.3167049
 40
1.3327996E-001
 50
2.0360651E+002
 51
2.1773479E+002
  0
ARC
  8
105
  6
CONTINUOUS
 62
3
 10
4.117956E+001
 20
3.2587689
 40
3.848799E-002
 50
2.1786749E+002
 51
2.6171222E+002
  0
ARC
  8
105
  6
CONTINUOUS
 62
3
 10
4.0818861E+001
 20
3.2566201
 40
3.737279E-002
 50
2.7826635E+002
 51
2.8814947E+002
  0
ARC
  8
105
  6
CONTINUOUS
 62
3
 10
4.0818698E+001
 20
3.2569465
 40
3.772639E-002
 50
2.8827111E+002
 51
3.240097E+002
  0
ARC
  8
105
  6
CONTINUOUS
 62
3
 10
4.0818399E+001
 20
3.2569465
 40
3.772639E-002
 50
2.1598916E+002
 51
2.6154246E+002
  0
ARC
  8
105
  6
CONTINUOUS
 62
3
 10
4.0897251E+001
 20
3.3176025
 40
1.3722396E-001
 50
2.0329448E+002
 51
2.177019E+002
  0
ARC
  8
105
  6
CONTINUOUS
 62
3
 10
4.093933E+001
 20
3.2569465
 40
3.772639E-002
 50
2.8827111E+002
 51
3.240097E+002
  0
ARC
  8
105
  6
CONTINUOUS
 62
3
 10
4.0939058E+001
 20
3.2569465
 40
3.772639E-002
 50
2.1598916E+002
 51
2.6154246E+002
  0
ARC
  8
105
  6
CONTINUOUS
 62
3
 10
4.1017911E+001
 20
3.3176025
 40
1.3722396E-001
 50
2.0329448E+002
 51
2.177019E+002
  0
ARC
  8
105
  6
CONTINUOUS
 62
3
 10
4.0939384E+001
 20
3.2566201
 40
3.739999E-002
 50
2.7845096E+002
 51
2.8833408E+002
  0
ARC
  8
105
  6
CONTINUOUS
 62
3
 10
4.06988E+001
 20
3.2587689
 40
3.848799E-002
 50
2.7828778E+002
 51
3.2213251E+002
  0
ARC
  8
105
  6
CONTINUOUS
 62
3
 10
4.0698501E+001
 20
3.2587689
 40
3.848799E-002
 50
2.1786749E+002
 51
2.6171222E+002
  0
ARC
  8
105
  6
CONTINUOUS
 62
3
 10
4.0777E+001
 20
3.3986313
 40
2.6084793E-002
 50
1.9543751E+002
 51
2.1726611E+002
  0
ARC
  8
105
  6
CONTINUOUS
 62
3
 10
4.062381E+001
 20
3.3547849
 40
1.3327996E-001
 50
1.6081035E+001
 51
3.7734771E+001
  0
ARC
  8
105
  6
CONTINUOUS
 62
3
 10
4.0758803E+001
 20
3.3848409
 40
3.2639991E-003
 50
2.174714E+002
 51
2.6993898E+002
  0
ARC
  8
105
  6
CONTINUOUS
 62
3
 10
4.1060179E+001
 20
3.4148697
 40
3.737279E-002
 50
7.1850512E+001
 51
8.1733633E+001
  0
ARC
  8
105
  6
CONTINUOUS
 62
3
 10
4.1059989E+001
 20
3.4145433
 40
3.772639E-002
 50
3.5990287E+001
 51
7.172893E+001
  0
ARC
  8
105
  6
CONTINUOUS
 62
3
 10
4.1120019E+001
 20
3.3696361
 40
1.1913597E-002
 50
8.6335744E+001
 51
8.9998606E+001
  0
ARC
  8
105
  6
CONTINUOUS
 62
3
 10
4.1120019E+001
 20
3.3848409
 40
3.2911991E-003
 50
2.1511529E+002
 51
2.6993996E+002
  0
ARC
  8
105
  6
CONTINUOUS
 62
3
 10
4.1138651E+001
 20
3.3988761
 40
2.6601593E-002
 50
1.9534876E+002
 51
2.1735102E+002
  0
ARC
  8
105
  6
CONTINUOUS
 62
3
 10
4.0981109E+001
 20
3.3538873
 40
1.3722396E-001
 50
1.6051928E+001
 51
3.7701883E+001
  0
ARC
  8
105
  6
CONTINUOUS
 62
3
 10
4.0999659E+001
 20
3.3848137
 40
3.2639991E-003
 50
2.7796515E+002
 51
3.2497685E+002
  0
ARC
  8
105
  6
CONTINUOUS
 62
3
 10
4.105969E+001
 20
3.4145433
 40
3.772639E-002
 50
9.8457526E+001
 51
1.4401082E+002
  0
ARC
  8
105
  6
CONTINUOUS
 62
3
 10
4.0981027E+001
 20
3.3988761
 40
2.6601593E-002
 50
3.2264898E+002
 51
3.4465125E+002
  0
ARC
  8
105
  6
CONTINUOUS
 62
3
 10
4.1138543E+001
 20
3.3538873
 40
1.3722396E-001
 50
1.4229814E+002
 51
1.6394809E+002
  0
ARC
  8
105
  6
CONTINUOUS
 62
3
 10
4.1119584E+001
 20
3.3847865
 40
3.2095991E-003
 50
2.9168027E+002
 51
3.2278941E+002
  0
ARC
  8
105
  6
CONTINUOUS
 62
3
 10
4.1101387E+001
 20
3.3986313
 40
2.6084793E-002
 50
3.2273389E+002
 51
3.4456249E+002
  0
ARC
  8
105
  6
CONTINUOUS
 62
3
 10
4.1254578E+001
 20
3.3547849
 40
1.3327996E-001
 50
1.4226525E+002
 51
1.6391899E+002
  0
ARC
  8
105
  6
CONTINUOUS
 62
3
 10
4.117956E+001
 20
3.4127209
 40
3.848799E-002
 50
9.8287758E+001
 51
1.4213249E+002
  0
ARC
  8
105
  6
CONTINUOUS
 62
3
 10
4.0818861E+001
 20
3.4148697
 40
3.737279E-002
 50
7.1850512E+001
 51
8.1733633E+001
  0
ARC
  8
105
  6
CONTINUOUS
 62
3
 10
4.0818698E+001
 20
3.4145433
 40
3.772639E-002
 50
3.5990287E+001
 51
7.172893E+001
  0
ARC
  8
105
  6
CONTINUOUS
 62
3
 10
4.0878701E+001
 20
3.3696361
 40
1.1913597E-002
 50
8.6335744E+001
 51
8.9998606E+001
  0
ARC
  8
105
  6
CONTINUOUS
 62
3
 10
4.0878701E+001
 20
3.3848409
 40
3.2911991E-003
 50
2.1511529E+002
 51
2.6993996E+002
  0
ARC
  8
105
  6
CONTINUOUS
 62
3
 10
4.089736E+001
 20
3.3988761
 40
2.6601593E-002
 50
1.9534876E+002
 51
2.1735102E+002
  0
ARC
  8
105
  6
CONTINUOUS
 62
3
 10
4.0739845E+001
 20
3.3538873
 40
1.3722396E-001
 50
1.6051928E+001
 51
3.7701883E+001
  0
ARC
  8
105
  6
CONTINUOUS
 62
3
 10
4.0758368E+001
 20
3.3848137
 40
3.2639991E-003
 50
2.7796515E+002
 51
3.2497685E+002
  0
ARC
  8
105
  6
CONTINUOUS
 62
3
 10
4.0818399E+001
 20
3.4145433
 40
3.772639E-002
 50
9.8457526E+001
 51
1.4401082E+002
  0
ARC
  8
105
  6
CONTINUOUS
 62
3
 10
4.0739736E+001
 20
3.3988761
 40
2.6601593E-002
 50
3.2264898E+002
 51
3.4465125E+002
  0
ARC
  8
105
  6
CONTINUOUS
 62
3
 10
4.0897251E+001
 20
3.3538873
 40
1.3722396E-001
 50
1.4229814E+002
 51
1.6394809E+002
  0
ARC
  8
105
  6
CONTINUOUS
 62
3
 10
4.093933E+001
 20
3.4145433
 40
3.772639E-002
 50
3.5990287E+001
 51
7.172893E+001
  0
ARC
  8
105
  6
CONTINUOUS
 62
3
 10
4.099936E+001
 20
3.3696361
 40
1.1913597E-002
 50
8.6335744E+001
 51
8.9998606E+001
  0
ARC
  8
105
  6
CONTINUOUS
 62
3
 10
4.099936E+001
 20
3.3848409
 40
3.2911991E-003
 50
2.1511529E+002
 51
2.6993996E+002
  0
ARC
  8
105
  6
CONTINUOUS
 62
3
 10
4.1017992E+001
 20
3.3988761
 40
2.6601593E-002
 50
1.9534876E+002
 51
2.1735102E+002
  0
ARC
  8
105
  6
CONTINUOUS
 62
3
 10
4.086045E+001
 20
3.3538873
 40
1.3722396E-001
 50
1.6051928E+001
 51
3.7701883E+001
  0
ARC
  8
105
  6
CONTINUOUS
 62
3
 10
4.0879027E+001
 20
3.3848137
 40
3.2639991E-003
 50
2.7796515E+002
 51
3.2497685E+002
  0
ARC
  8
105
  6
CONTINUOUS
 62
3
 10
4.0939058E+001
 20
3.4145433
 40
3.772639E-002
 50
9.8457526E+001
 51
1.4401082E+002
  0
ARC
  8
105
  6
CONTINUOUS
 62
3
 10
4.0860368E+001
 20
3.3988761
 40
2.6601593E-002
 50
3.2264898E+002
 51
3.4465125E+002
  0
ARC
  8
105
  6
CONTINUOUS
 62
3
 10
4.1017911E+001
 20
3.3538873
 40
1.3722396E-001
 50
1.4229814E+002
 51
1.6394809E+002
  0
ARC
  8
105
  6
CONTINUOUS
 62
3
 10
4.093952E+001
 20
3.4148697
 40
3.737279E-002
 50
7.1850512E+001
 51
8.1733633E+001
  0
ARC
  8
105
  6
CONTINUOUS
 62
3
 10
4.06988E+001
 20
3.4127209
 40
3.848799E-002
 50
3.7867526E+001
 51
8.1712261E+001
  0
ARC
  8
105
  6
CONTINUOUS
 62
3
 10
4.0698501E+001
 20
3.4127209
 40
3.848799E-002
 50
9.8287758E+001
 51
1.4213249E+002
  0
ARC
  8
105
  6
CONTINUOUS
 62
3
 10
4.0773519E+001
 20
3.3167049
 40
1.3327996E-001
 50
2.1271637E+002
 51
2.1773479E+002
  0
ARC
  8
105
  6
CONTINUOUS
 62
3
 10
4.0773519E+001
 20
3.3547849
 40
1.3327996E-001
 50
1.4226525E+002
 51
1.6110404E+002
  0
ARC
  8
105
  6
CONTINUOUS
 62
3
 10
4.1104869E+001
 20
3.3167049
 40
1.3327996E-001
 50
3.2226521E+002
 51
3.3397544E+002
  0
ARC
  8
105
  6
CONTINUOUS
 62
3
 10
4.062381E+001
 20
3.3167049
 40
1.3327996E-001
 50
3.2226521E+002
 51
3.3639349E+002
  0
ARC
  8
105
  6
CONTINUOUS
 62
3
 10
4.0739845E+001
 20
3.3176025
 40
1.3722396E-001
 50
3.222981E+002
 51
3.3670552E+002
  0
ARC
  8
105
  6
CONTINUOUS
 62
3
 10
4.086045E+001
 20
3.3176025
 40
1.3722396E-001
 50
3.222981E+002
 51
3.3670552E+002
  0
ARC
  8
105
  6
CONTINUOUS
 62
3
 10
4.0981109E+001
 20
3.3176025
 40
1.3722396E-001
 50
3.222981E+002
 51
3.3670552E+002
  0
TEXT
  8
105
  6
CONTINUOUS
 62
7
 10
4.0448152E+001
 20
3.2796313
 40
1.0401277E-001
  1
Jefferson Lab
 41
6.9979079E-001
 51
1.5E+001
  0
TEXT
  8
105
  6
CONTINUOUS
 62
7
 10
3.9892674E+001
 20
2.9616906
 40
4.5559988E-002
  1
UNITED STATES DEPARTMENT OF ENERGY
 41
1.3504478
 50
1.2631E-002
  0
TEXT
  8
105
  6
CONTINUOUS
 62
7
 10
4.0262594E+001
 20
3.0457114
 40
4.5559988E-002
  1
NEWPORT NEWS, VIRGINIA
 41
1.3504478
 50
1.2631E-002
  0
TEXT
  8
105
  6
CONTINUOUS
 62
7
 10
3.9029537E+001
 20
3.1291337
 40
6.8353581E-002
  1
Thomas Jefferson National Accelerator Facility
 41
1.2001592
 50
1.2631E-002
  0
ARC
  8
105
  6
CONTINUOUS
 62
3
 10
4.1773499E+001
 20
3.4551529
 40
1.1054077E-001
 50
2.8621918E+002
 51
2.909317E+002
  0
ARC
  8
105
  6
CONTINUOUS
 62
3
 10
4.1781034E+001
 20
3.4297753
 40
8.4047977E-002
 50
2.8045579E+002
 51
2.8611238E+002
  0
ARC
  8
105
  6
CONTINUOUS
 62
3
 10
4.1765475E+001
 20
3.522636
 40
1.7818715E-001
 50
2.7464726E+002
 51
2.7996225E+002
  0
LINE
  8
105
  6
CONTINUOUS
 62
3
 10
4.1754024E+001
 20
3.3419737
 11
4.1779891E+001
 21
3.3450201
  0
LINE
  8
105
  6
CONTINUOUS
 62
3
 10
4.1721248E+001
 20
3.3382201
 11
4.1754024E+001
 21
3.3419737
  0
LINE
  8
105
  6
CONTINUOUS
 62
3
 10
4.1682488E+001
 20
3.3346297
 11
4.1721248E+001
 21
3.3382201
  0
LINE
  8
105
  6
CONTINUOUS
 62
3
 10
4.163021E+001
 20
3.3309577
 11
4.1682488E+001
 21
3.3346297
  0
LINE
  8
105
  6
CONTINUOUS
 62
3
 10
4.1564086E+001
 20
3.3271497
 11
4.163021E+001
 21
3.3309577
  0
LINE
  8
105
  6
CONTINUOUS
 62
3
 10
4.0279104E+001
 20
3.3289449
 11
4.035162E+001
 21
3.3252457
  0
LINE
  8
105
  6
CONTINUOUS
 62
3
 10
4.021309E+001
 20
3.3331881
 11
4.0279104E+001
 21
3.3289449
  0
LINE
  8
105
  6
CONTINUOUS
 62
3
 10
4.0174439E+001
 20
3.3363433
 11
4.021309E+001
 21
3.3331881
  0
LINE
  8
105
  6
CONTINUOUS
 62
3
 10
4.013557E+001
 20
3.3403961
 11
4.0174439E+001
 21
3.3363433
  0
LINE
  8
105
  6
CONTINUOUS
 62
3
 10
4.0109186E+001
 20
3.3434969
 11
4.013557E+001
 21
3.3403961
  0
LINE
  8
105
  6
CONTINUOUS
 62
3
 10
4.0083863E+001
 20
3.3465433
 11
4.0109186E+001
 21
3.3434969
  0
ARC
  8
105
  6
CONTINUOUS
 62
3
 10
4.0092621E+001
 20
3.4175081
 40
7.153598E-002
 50
2.5548664E+002
 51
2.6295675E+002
  0
ARC
  8
105
  6
CONTINUOUS
 62
3
 10
4.0098986E+001
 20
3.4434841
 40
9.8273573E-002
 50
2.4963536E+002
 51
2.5568087E+002
  0
ARC
  8
105
  6
CONTINUOUS
 62
3
 10
4.0111389E+001
 20
3.478028
 40
1.3496636E-001
 50
2.4490605E+002
 51
2.4979802E+002
  0
ARC
  8
105
  6
CONTINUOUS
 62
3
 10
4.0114164E+001
 20
3.2354585
 40
1.4214716E-001
 50
1.10326E+002
 51
1.1496994E+002
  0
ARC
  8
105
  6
CONTINUOUS
 62
3
 10
4.0100591E+001
 20
3.2714713
 40
1.0365917E-001
 50
1.0447593E+002
 51
1.102078E+002
  0
ARC
  8
105
  6
CONTINUOUS
 62
3
 10
4.0093356E+001
 20
3.2988345
 40
7.5371179E-002
 50
9.7233573E+001
 51
1.0432307E+002
  0
LINE
  8
105
  6
CONTINUOUS
 62
3
 10
4.0109186E+001
 20
3.3766537
 11
4.0083863E+001
 21
3.3735801
  0
LINE
  8
105
  6
CONTINUOUS
 62
3
 10
4.013557E+001
 20
3.3797273
 11
4.0109186E+001
 21
3.3766537
  0
LINE
  8
105
  6
CONTINUOUS
 62
3
 10
4.0174439E+001
 20
3.3838073
 11
4.013557E+001
 21
3.3797273
  0
LINE
  8
105
  6
CONTINUOUS
 62
3
 10
4.021309E+001
 20
3.3869353
 11
4.0174439E+001
 21
3.3838073
  0
LINE
  8
105
  6
CONTINUOUS
 62
3
 10
4.0279104E+001
 20
3.3911513
 11
4.021309E+001
 21
3.3869353
  0
LINE
  8
105
  6
CONTINUOUS
 62
3
 10
4.035162E+001
 20
3.3948777
 11
4.0279104E+001
 21
3.3911513
  0
LINE
  8
105
  6
CONTINUOUS
 62
3
 10
4.0430418E+001
 20
3.3981145
 11
4.035162E+001
 21
3.3948777
  0
LINE
  8
105
  6
CONTINUOUS
 62
3
 10
4.0507911E+001
 20
3.4006169
 11
4.0430418E+001
 21
3.3981145
  0
LINE
  8
105
  6
CONTINUOUS
 62
3
 10
4.1445875E+001
 20
3.3981145
 11
4.1405837E+001
 21
3.3994745
  0
LINE
  8
105
  6
CONTINUOUS
 62
3
 10
4.1524701E+001
 20
3.3948777
 11
4.1445875E+001
 21
3.3981145
  0
LINE
  8
105
  6
CONTINUOUS
 62
3
 10
4.1597189E+001
 20
3.3911513
 11
4.1524701E+001
 21
3.3948777
  0
LINE
  8
105
  6
CONTINUOUS
 62
3
 10
4.1663203E+001
 20
3.3869353
 11
4.1597189E+001
 21
3.3911513
  0
LINE
  8
105
  6
CONTINUOUS
 62
3
 10
4.1701854E+001
 20
3.3838073
 11
4.1663203E+001
 21
3.3869353
  0
LINE
  8
105
  6
CONTINUOUS
 62
3
 10
4.1740723E+001
 20
3.3797273
 11
4.1701854E+001
 21
3.3838073
  0
LINE
  8
105
  6
CONTINUOUS
 62
3
 10
4.176708E+001
 20
3.3766537
 11
4.1740723E+001
 21
3.3797273
  0
LINE
  8
105
  6
CONTINUOUS
 62
3
 10
4.1792458E+001
 20
3.3735801
 11
4.176708E+001
 21
3.3766537
  0
ARC
  8
105
  6
CONTINUOUS
 62
3
 10
4.1783672E+001
 20
3.3025881
 40
7.153598E-002
 50
7.5486617E+001
 51
8.2956726E+001
  0
ARC
  8
105
  6
CONTINUOUS
 62
3
 10
4.1777307E+001
 20
3.2766393
 40
9.8273573E-002
 50
6.9635342E+001
 51
7.5680849E+001
  0
ARC
  8
105
  6
CONTINUOUS
 62
3
 10
4.1812232E+001
 20
3.3603337
 40
8.4591977E-003
 50
2.7503441E+002
 51
4.5503437E+002
  0
ARC
  8
105
  6
CONTINUOUS
 62
3
 10
4.005416E+001
 20
3.3600617
 40
4.2703989E-003
 50
9.0012128E+001
 51
2.7001215E+002
  0
LINE
  8
105
  6
CONTINUOUS
 62
7
 10
3.1970258E+001
 20
1.6755118
 11
3.2042372E+001
 21
1.5505618
  0
LINE
  8
105
  6
CONTINUOUS
 62
7
 10
3.2042372E+001
 20
1.5505618
 11
3.2186634E+001
 21
1.8004278
  0
LINE
  8
105
  6
CONTINUOUS
 62
7
 10
3.2186634E+001
 20
1.8004278
 11
3.2436466E+001
 21
1.8004278
  0
INSERT
  2
*TX69
  8
1
 10
3.125E+001
 20
1.7941038
  0
INSERT
  2
*TX70
  8
1
 10
3.3E+001
 20
1.7941038
  0
POINT
  8
Drafting_Hidden_Entities
  6
CONTINUOUS
 62
1
 10
0.0
 20
0.0
  0
ENDBLK
  0
BLOCK
  2
_AH1
 70
0
 10
0.0
 20
0.0
  3
_AH1
  0
LINE
  8
0
  6
CONTINUOUS
 62
0
 10
-1.0
 20
1.66667E-001
 11
0.0
 21
0.0
  0
LINE
  8
0
  6
CONTINUOUS
 62
0
 10
0.0
 20
0.0
 11
-1.0
 21
-1.66667E-001
  0
LINE
  8
0
  6
CONTINUOUS
 62
0
 10
-1.0
 20
1.66667E-001
 11
-1.0
 21
-1.66667E-001
  0
LINE
  8
0
  6
CONTINUOUS
 62
0
 10
0.0
 20
0.0
 11
-1.0
 21
0.0
  0
ENDBLK
  0
BLOCK
  2
_AH2
 70
0
 10
0.0
 20
0.0
  3
_AH2
  0
LINE
  8
0
  6
CONTINUOUS
 62
0
 10
-1.0
 20
1.66667E-001
 11
0.0
 21
0.0
  0
LINE
  8
0
  6
CONTINUOUS
 62
0
 10
0.0
 20
0.0
 11
-1.0
 21
-1.66667E-001
  0
LINE
  8
0
  6
CONTINUOUS
 62
0
 10
0.0
 20
0.0
 11
-1.0
 21
0.0
  0
ENDBLK
  0
ENDSEC
  0
SECTION
  2
ENTITIES
  0
LINE
  8
0
  6
CONTINUOUS
 62
3
 10
3.075E+001
 20
7.5E-001
 11
4.3625E+001
 21
7.5E-001
  0
LINE
  8
0
  6
CONTINUOUS
 62
3
 10
4.3625E+001
 20
7.5E-001
 11
4.3625E+001
 21
3.325E+001
  0
LINE
  8
0
  6
CONTINUOUS
 62
3
 10
4.3625E+001
 20
3.325E+001
 11
3.075E+001
 21
3.325E+001
  0
LINE
  8
0
  6
CONTINUOUS
 62
3
 10
3.075E+001
 20
3.325E+001
 11
3.075E+001
 21
7.5E-001
  0
TEXT
  8
2
  6
CONTINUOUS
 62
7
 10
3.08E+001
 20
8.0E-001
 40
1.25E-001
  1
2-BLOCK
 50
1.0
  0
INSERT
  2
FORMAT-ORIGIN
  8
1
 10
0.0
 20
0.0
  0
INSERT
  2
E_FORMAT_BORDER_NEW1
  8
1
 10
0.0
 20
0.0
 66
1
  0
ATTRIB
  8
1
  6
CONTINUOUS
 62
1
 10
4.249E+001
 20
1.372
 40
1.9E-001
  1
***-***-****-****
 72
1
 11
4.0875E+001
 21
1.372
  2
TITLE LINE 1
 70
0
  0
ATTRIB
  8
1
  6
CONTINUOUS
 62
1
 10
4.3345E+001
 20
1.372
 40
1.9E-001
  1
*
 72
1
 11
4.325E+001
 21
1.372
  2
TITLE LINE 2
 70
0
  0
ATTRIB
  8
1
  6
CONTINUOUS
 62
1
 10
4.332154E+001
 20
1.0527834
 40
1.4E-001
  1
*
 72
1
 11
4.325154E+001
 21
1.0527834
  2
TITLE LINE 3
 70
0
  0
ATTRIB
  8
1
  6
CONTINUOUS
 62
1
 10
3.9439E+001
 20
1.055
 40
1.4E-001
  1
1:1
 41
9.0E-001
 72
1
 11
3.925E+001
 21
1.055
  2
TITLE LINE 4
 70
0
  0
ATTRIB
  8
1
  6
CONTINUOUS
 62
1
 10
4.17219E+001
 20
1.055
 40
1.4E-001
  1
***-***-****-****
 41
5.0E-001
 72
1
 11
4.11269E+001
 21
1.055
  2
TRACKING NO. LINE 1
 70
0
  0
SEQEND
  0
INSERT
  2
E_TITLEBLOCK_NEW1
  8
1
 10
0.0
 20
0.0
 66
1
  0
ATTRIB
  8
1
  6
CONTINUOUS
 62
1
 10
4.1012E+001
 20
2.798
 40
1.8E-001
  1
*
 41
8.0E-001
 72
1
 11
4.094E+001
 21
2.708
  2
TITLE LINE 1
 70
0
 73
2
 74
2
  0
ATTRIB
  8
1
  6
CONTINUOUS
 62
1
 10
4.1012E+001
 20
2.536
 40
1.8E-001
  1
*
 41
8.0E-001
 72
1
 11
4.094E+001
 21
2.446
  2
TITLE LINE 2
 70
0
 73
2
 74
2
  0
ATTRIB
  8
1
  6
CONTINUOUS
 62
1
 10
4.1012E+001
 20
2.274
 40
1.8E-001
  1
*
 41
8.0E-001
 72
1
 11
4.094E+001
 21
2.184
  2
TITLE LINE 3
 70
0
 73
2
 74
2
  0
ATTRIB
  8
1
  6
CONTINUOUS
 62
1
 10
4.1012E+001
 20
2.012
 40
1.8E-001
  1
*
 41
8.0E-001
 72
1
 11
4.094E+001
 21
1.922
  2
TITLE LINE 4
 70
0
 73
2
 74
2
  0
ATTRIB
  8
1
  6
CONTINUOUS
 62
1
 10
3.722875E+001
 20
3.161
 40
9.0E-002
  1
N/A
 41
7.5E-001
 72
1
 11
3.71275E+001
 21
3.161
  2
TRACKING NO. LINE 1
 70
0
  0
ATTRIB
  8
1
  6
CONTINUOUS
 62
1
 10
3.716125E+001
 20
3.026
 40
9.0E-002
  1
 
 41
7.5E-001
 72
1
 11
3.71275E+001
 21
3.026
  2
TRACKING NO. LINE 2
 70
0
  0
ATTRIB
  8
1
  6
CONTINUOUS
 62
1
 10
3.6209859E+001
 20
2.1937957
 40
1.4E-001
  1
*
 41
5.0E-001
  2
DRAWN
 70
0
  0
ATTRIB
  8
1
  6
CONTINUOUS
 62
1
 10
3.82225E+001
 20
2.1937957
 40
1.4E-001
  1
DDMMMYY
 41
5.0E-001
 72
1
 11
3.79775E+001
 21
2.1937957
  2
DRAWN DATE
 70
0
  0
ATTRIB
  8
1
  6
CONTINUOUS
 62
1
 10
3.6209859E+001
 20
1.8142198
 40
1.4E-001
  1
 
 41
5.0E-001
  2
CHECKED
 70
0
  0
ATTRIB
  8
1
  6
CONTINUOUS
 62
1
 10
3.80125E+001
 20
1.8142198
 40
1.4E-001
  1
 
 41
5.0E-001
 72
1
 11
3.79775E+001
 21
1.8142198
  2
CHECKED DATE
 70
0
  0
ATTRIB
  8
1
  6
CONTINUOUS
 62
1
 10
3.6209859E+001
 20
1.4346099
 40
1.4E-001
  1
 
 41
5.0E-001
  2
APPROVED NO. 1
 70
0
  0
ATTRIB
  8
1
  6
CONTINUOUS
 62
1
 10
3.80125E+001
 20
1.4346099
 40
1.4E-001
  1
 
 41
5.0E-001
 72
1
 11
3.79775E+001
 21
1.4346099
  2
APPROVED NO. 1 DATE
 70
0
  0
ATTRIB
  8
1
  6
CONTINUOUS
 62
1
 10
3.6209859E+001
 20
1.055
 40
1.4E-001
  1
 
 41
5.0E-001
  2
APPROVED NO. 2
 70
0
  0
ATTRIB
  8
1
  6
CONTINUOUS
 62
1
 10
3.80125E+001
 20
1.055
 40
1.4E-001
  1
 
 41
5.0E-001
 72
1
 11
3.79775E+001
 21
1.055
  2
APPROVED NO. 2 DATE
 70
0
  0
ATTRIB
  8
1
  6
CONTINUOUS
 62
1
 10
3.368562E+001
 20
2.7568901
 40
9.0E-002
  1
N/A
 41
9.0E-001
  2
FRACTIONAL TOLERANCE
 70
0
  0
ATTRIB
  8
1
  6
CONTINUOUS
 62
1
 10
3.4847172E+001
 20
2.7613887
 40
9.0E-002
  1
.1
 41
9.0E-001
  2
1PL DECIMAL TOLERANCE
 70
0
  0
ATTRIB
  8
1
  6
CONTINUOUS
 62
1
 10
3.4847172E+001
 20
2.6431038
 40
9.0E-002
  1
.01
 41
9.0E-001
  2
2PL DECIMAL TOLERANCE
 70
0
  0
ATTRIB
  8
1
  6
CONTINUOUS
 62
1
 10
3.4848051E+001
 20
2.5290709
 40
9.0E-002
  1
.005
 41
9.0E-001
  2
3PL DECIMAL TOLERANCE
 70
0
  0
ATTRIB
  8
1
  6
CONTINUOUS
 62
1
 10
3.5493299E+001
 20
2.7618674
 40
9.0E-002
  1
.50%%d
 41
9.0E-001
  2
ANGULAR TOLERANCE
 70
0
  0
ATTRIB
  8
1
  6
CONTINUOUS
 62
1
 10
3.21775E+001
 20
2.3574177
 40
1.4E-001
  1
*
 41
7.5E-001
 72
1
 11
3.2125E+001
 21
2.2874177
  2
MATERIAL SPEC LINE 1
 70
0
 73
2
 74
2
  0
ATTRIB
  8
1
  6
CONTINUOUS
 62
1
 10
3.21775E+001
 20
2.1474177
 40
1.4E-001
  1
 
 41
7.5E-001
 72
1
 11
3.2125E+001
 21
2.0774177
  2
MATERIAL SPEC LINE 2
 70
0
 73
2
 74
2
  0
ATTRIB
  8
1
  6
CONTINUOUS
 62
1
 10
3.207377E+001
 20
1.6953186
 40
8.0E-002
  1
125
 41
1.013
 72
1
 11
3.195221E+001
 21
1.6953186
  2
FINISH SPEC
 70
0
  0
SEQEND
  0
ENDSEC
  0
EOF
